Song name
# A B C D E F G H I J K L M N O P Q R S T U V W X Y Z

Misc Unsigned Bands - Michael Carreon - You And I chords

Highlighted       Show chord diagrams
---------------------------------------------------------------
 You and I - Michael Carreon feat. Kat Badar & Jesse Barrera
---------------------------------------------------------------

Hey, this song 'You and I' is by Michael Carreon featuring Kat Badar and
Jesse Barrera. This is a catchy song. I dunno what chords Jesse plays during
his solo, but I tried simplifying it by keeping a finger on the first fret 
of the low E string and hammering on the third fret. If you listen to song 
several times you'll get the hang of the rhythm. 
If there are any corrections or uncertainties feel free to leave a comment.

Hope you have fun. Peace =)
Chresty





CHORDS: [ [E A D G B E] (Standard Tuning)
Cm7     [ 8 x 8 8 x x]
C#m7    [ 9 x 9 9 x x]
Dm7     [10 x1010 x x]
D#m     [ x 6 8 8 7 6]
D#sus2  [ x 6 8 8 6 6]
F       [ 1 3 3 2 1 1]
Fm      [ x 81010 9 8]
F#m7    [ 2 x 2 2 x x]
Gm7     [ 3 x 3 3 x x]
A#      [ 6 8 8 7 6 6]





STRUMMING PATTERN:
INTRO/VERSE 1 & 2/CHORUS:
 F#m7 Gm7 D#sus2     A#   F
e|--x--x----6--------6----1-------------|
B|--x--x----6--------6----1-------------|
G|--2--3----8--------7----2-------------|
D|--2--3----8--------8----3-------------|
A|--x--x----6--------8----3-------------|
E|--2--3----x--------6----1-------------|


PRE-CHORUS:
   Cm7      Gm7   F
e|--x--------x----1-------------------------|
B|--x--------x----1-------------------------|
G|--8--------3----2-------------------------|
D|--8--------3----3-------------------------|
A|--x--------x----3-------------------------|
E|--8--------3----1-------------------------|

{play just before chorus/bridge/guitar solo, unsure about the F*}
   Cm7       Dm7  Fm
e|--x--------x----8-------------------------|
B|--x--------x----9-------------------------|
G|--8--------10---10------------------------|
D|--8--------10---10------------------------|
A|--x--------x----8-------------------------|
E|--8--------10---x-------------------------|


GUITAR SOLO: {mess around with this}
|-x-------------------------------|
|-x-------------------------------|
|-x-------------------------------|
|-x-------------------------------|
|-x-------------------------------|
|-1h3-----------------------------|


BRIDGE: {it is a Dm7 step down to Cm7 and Cm7 step up to Dm7}
  Dm7  C#m7 Cm7  C#m7 Dm7
|-x------x--x------x--x-----------------------|
|-x------x--x------x--x-----------------------|
|-10-----9--8------9--10----------------------|
|-10-----9--8------9--10----------------------|
|-x------x--x------x--x-----------------------|
|-10-----9--8------9--10----------------------|

or

  Cm7  C#m7 Dm7 
|-x------x--x-----------------------|
|-x------x--x-----------------------|
|-8------9--10----------------------|
|-8------9--10----------------------|
|-x------x--x-----------------------|
|-8------9--10----------------------|

{end the BRIDGE with}

 Cm7     Dm7    D#m {let ring}
|-x------x-------6----------------|
|-x------x-------7----------------|
|-8------10------8----------------|
|-8------10------8----------------|
|-x------x-------6----------------|
|-8------10------x----------------|





INTRO:
Gm7 - D#sus2 - A# - F
F#m7-Gm7 - D#sus2 - A# - F - F#m7-Gm7

VERSE 1:
Gm7           D#sus2                 A#             F           F#m7-Gm7 
I've tried to avoid this day for so long but it's finally here
               D#sus2                  A#     F     F#m7-Gm7
Cause you and I used to be something special
                D#sus2             A#                   F     F#m7-Gm7
And love and happiness was all we had for a couple of years
              D#sus2           A#
And then one day we decided to go our separate ways
F	
Memories began to fade away


PRE-CHORUS:
Cm7
Cause tonight
Gm7         F
It's gonna be rough
Cm7
cause tonight
Gm7          F
You and I are gonna be
Cm7
At the same place
At the same time
          Gm7                   F
Why'd we have to have the same friends
You and I
                    Cm7
I don't want you to think I miss you
Or that I hate you
          Dm7                  Fm
I'm just tryna get through tonight


CHORUS:
Gm7        D#sus2 
What am I supposed to say
A#                   F             F#m7-Gm7
So long since I've seen your face
              D#sus2
Do you wanna kiss me
               A#
Or tell me you miss me
             F               F#m7-Gm7
Or that you want me to leave

            D#sus2
What am I supposed to do
A#             F
Ain't nobody know the truth
    Cm7
But I'm not gonna waste my time
     Dm7     Fm
and try to tell you


{Guitar Solo}
|-x-------------------------------|
|-x-------------------------------|
|-x-------------------------------|
|-x-------------------------------|
|-x-------------------------------|
|-1h3-----------------------------|


VERSE 2: {same as above}
I never thought that you and I could ever be just friends
And what we had was nothing special
Love and happiness is what we'll never have
Honestly I don't think it was meant to be this bad


PRE-CHORUS: {same as above}
Cause tonight
It's gonna be rough
Cause tonight
You and I are gonna be
At the same place
At the same time
Why'd we have to have the same friends
You and I
I don't want you to think I miss you
Or that I hate you
I'm just tryna get through tonight


CHORUS: {same as above}
What am I supposed to say
So long since I've seen your face
Do you wanna kiss me
Or tell me you miss me
Or that you want me to leave

What am I supposed to do
Ain't nobody know the truth
But I'm not gonna waste my time
and try to tell you


BRIDGE: {oooo ooooo solo =) it is a Dm7 step down to Cm7 and Cm7 step up to Dm7}
Dm7 - C#m7 - Cm7 - C#m7 - Dm7 (x2)
Dm7 - C#m7 - Cm7
Cm7 - Dm7 - D#m {let ring}
or
Cm7 - C#m7 - Dm7 (x3)
Cm7 - Dm7 - D#m {let ring}


CHORUS: {same as above x2, but hold off on the last three chords till the end}
What am I supposed to say
So long since I've seen your face
Do you wanna kiss me
Or tell me you miss me
Or that you want me to leave

What am I supposed to do
Ain't nobody know the truth
But I'm not gonna waste my time
and try to tell you

And what am I supposed to say
And what am I supposed to do
I don't want you to think that 
I am running back to you

And what am I supposed to say
                           Cm7
And what am I supposed to do
I don't want you to think that
Dm7           Fm      Gm7
I am running back to you
Tap to rate this tab
# A B C D E F G H I J K L M N O P Q R S T U V W X Y Z