Song name
# A B C D E F G H I J K L M N O P Q R S T U V W X Y Z

Misc Unsigned Bands - Powerage - Die On Me tab

Powerage
Die on Me Solo
the guys were unsatisfied with the solo so its been changed!
                                                                 ~~~~
e|-------------------------------------------------------14-15-17^---|
b|-----12^------------------------------15-14---14-15-17-------------|
g|-----11^------------13-14----13-14-16-------16---------------------|
d|--------------14-16-------16---------------------------------------|
a|-------------------------------------------------------------------|
e|-------------------------------------------------------------------|

e|17171717171717p1417171717171717p1417171717171717p1417171717171717-|
b|------------------------------------------------------------------|
g|------------------------------------------------------------------|
d|------------------------------------------------------------------|
a|------------------------------------------------------------------|
e|------------------------------------------------------------------|

e|------------------------------------------------------------------|
b|17171717171717p1417171717171717p1417171717171717p1417171717171717-|
g|------------------------------------------------------------------|
b|------------------------------------------------------------------|
a|------------------------------------------------------------------|
e|------------------------------------------------------------------|

e|-----------------12-9^^^^-14-------------10-12------11----------8-|
b|10-14-13-11-12-9------------14-13------11-----11--10--12----9-8---|
g|---------------------------------14--12---------10------11^9-8----|
d|-----------------------------------13-----------------------------|
a|------------------------------------------------------------------|
e|------------------------------------------------------------------|
                                          ~~~~~
e|7-9-----------------3-0----------2-1------------------------------|
b|---8p7---------4-5-3------2-3-2-1----2^^17-16-17--------15--------|
g|------9-7h8-6-4--------2-3---1------3-----------17-15-17--16-15-14|
d|------------------------------------------------------------------|
a|------------------------------------------------------------------|
e|------------------------------------------------------------------|
                     ~~~~~~
e|--------------11-12^^^^^^\p0-|
b|14-13-------12---------------|
g|-----13-12-------------------|
d|----------11-----------------|
a|-----------------------------|
e|-----------------------------|
Tap to rate this tab
 
# A B C D E F G H I J K L M N O P Q R S T U V W X Y Z