Song name
# A B C D E F G H I J K L M N O P Q R S T U V W X Y Z

Misc Unsigned Bands - Rock It - Lets Rock It tab

Rock It - Let's Rock It
-----------------------

Let's Rock It from the Rock It movie soundtrack.
Here's a video of me playing the song: http://www.youtube.com/watch?v=LnejLl-15As

Tuning: Drop D



### INTRO ### 00:00 ###
e|----------------------------------------------|
B|----------------------------------------------|
G|----------------------------------------------| 2x
D|----------------------------------------------|
A|--0-00-54----4-----54----4----54----4---------|
D|--------------2-22--------0-00-------0-0002---|


### VERSE ### 00:12 ###
e|--------------------------|    |--------------------------|-------------------------------|
B|--------------------------|    |--------------------------|-------------------------------|
G|--2-2---------------------| 2x |--2-2---------------------|--2-2--------------------------|
D|--2-2---2-2---0-0---0-0---|    |--2-2---2-2---4-4---0-0---|--2-2---2-2---0-0-0-0-0-0-0-0--|
A|--0-0---2-2---0-0---0-0---|    |--0-0---2-2---4-4---0-0---|--0-0---2-2---0-0-0-0-0-0-0-0--|
D|--------2-2---0-0---0-0---|    |--------2-2---4-4---0-0---|--------2-2---0-0-0-0-0-0-0-0--|


### PRE-CHORUS ### 00:32 ####
e|---------------------------------------------------------------------------------------|
B|---------------------------------------------------------------------------------------|
G|---------------------------------------------------------------------------------------|
D|-------------------7777777777777777----------------------------------------------------|
A|--4444444444444444-5555555555555555-7777777777777777-22222222222222222222222222222222--|
D|--4444444444444444------------------7777777777777777-22222222222222222222222222222222--|


### CHORUS ### 00:44 ###
e|-----------------------|----------------------|-----------------------|----------------|
B|-----------------------|----------------------|-----------------------|----------------|
G|-------7777------------|-------7777-99999999--|-------7777------------|-------7777-----|
D|--4444-7777-7777-2222--|--4444-7777-99999999--|--4444-7777-7777-2222--|--4444-7777-----|
A|--4444-5555-7777-2222--|--4444-5555-77777777--|--4444-5555-7777-2222--|--4444-5555-----|
D|--4444------7777-2222--|--4444----------------|--4444------7777-2222--|--4444----------|



### INTRO ### 01:04 ###

### VERSE ### 01:14 ###

### PRE-CHORUS ### 01:34 ###

### CHORUS ### 01:46 ### (+8x x799xx chord)

### INTRO ### 02:06 ### (only 1x)



### SOLO ###
e|---------------------------------|----------------------------|
B|------6-6-6-666-6----------------|------6-6-6-666-6-----------|
G|--7-9-------------9-7-8b--7-777--|--7-9-------------9-7-8b----|
D|---------------------------------|----------------------------|
A|---------------------------------|----------------------------|
D|---------------------------------|----------------------------|


### CHORUS ### 02:23 ### (transposed +2st)
e|-----------------------|------------------------------|
B|-----------------------|------------------------------|
G|-------9999------------|-------9999-1111111111111111--| 2x
D|--6666-9999-9999-4444--|--6666-9999-1111111111111111--|
A|--6666-7777-9999-4444--|--6666-7777-9-9-9-9-9-9-9-9---|
D|--6666------9999-4444--|--6666------------------------|


### OUTRO ### 02:43 ###
e|-----------------------------------------------|
B|-----------------------------------------------|
G|-------------------------------------------4---|
D|------21----1----21----1----21----1--------4---|
A|--2-2--------------------------------------2---|
D|-------------4-4--------2-2--------2-2-24------|
Tap to rate this tab
# A B C D E F G H I J K L M N O P Q R S T U V W X Y Z