Song name
# A B C D E F G H I J K L M N O P Q R S T U V W X Y Z

Misc Unsigned Bands - Mehrzad Marashi - Dont Believe tab

MEHRZAD MARASHI - DON'T BELIEVE

..the winner and his first song from "DSDS", Germany's Fake of "American Idol"!


_____________________________________________________________________________
-> VERSE 1:

e:|-------------------------------------------------------------------------|
B:|-------------------------------------------------------------------------|
G:|----8~-------------------------------------------------------------------|
D:|----8~----------10~----------6~----------8~------------------------------|
A:|----6~----------10~----------6~----------8~------------------------------|
E:|---------------- 8~----------4~----------6~------------------------------|

Lyrics:

When your heart is weak
You don't know where to go
And you cannot sleep
And it's time to know
And heaven is a million miles away - For you girl
_____________________________________________________________________________
-> VERSE 2:

e:|-------------------------------------------------------------------------|
B:|-------------------------------------------------------------------------|
G:|----8-\------------------------------------------------------------------|
D:|----8- } x16------10-\------------6-\------------8-\---------------------|
A:|----6-/-----------10- } x-16------6- } x16-------8- } x16----------------|
E:|------------------ 8-/------------4-/------------6-/---------------------|
       pm            pm              pm             pm

Lyrics:

And the rainbows end
There's a place for you
Just believe in yourself
Theres so much to do
Beetween the shadows and the lonely hearts - for you girl
_____________________________________________________________________________
-> PRE-CHORUS:

e:|-------------------------------------------------------------------------|
B:|-------------------------------------------------------------------------|
G:|----8-\------------------------------------------------------------------|
D:|----8- } x16------10-\------------6-\------------8-\---------------------|
A:|----6-/-----------10- } x-16------6- } x16-------8- } x16--THEN LET RING!|
E:|------------------ 8-/------------4-/------------6-/---------------------|
       pm            pm              pm             pm


Lyrics:

I know it's not an easy love (easy love)
Enough now, Baby, just enough (just enough)
Oh Baby, you destroy this love (this love)
Oh, like the devil in the dark (in the dark)
_____________________________________________________________________________
-> CHORUS:

e:|-------------------------------------------------------------------------|
B:|-------------------------------------------------------------------------|
G:|----8-\------------------------------------------------------------------|
D:|----8- } x16------10-\------------6-\------------8-\---------------------|
A:|----6-/-----------10- } x-16------6- } x16-------8- } x16----------------|
E:|------------------ 8-/------------4-/------------6-/---------------------|

e:|-------------------------------------------------------------------------|
B:|-------------------------------------------------------------------------|
G:|----8-\------------------------------------------------------------------|
D:|----8- } x16------10-\------------6-\------------8-\---------------------|
A:|----6-/-----------10- } x-16------6- } x16-------8- } x16----------------|
E:|------------------ 8-/------------4-/------------6-/---------------------|

Lyrics:

Don't believe, oh, what they tell about me
Don't believe - it's only mistery
Don't believe in my heart it's rainin', rainin', rainin'..
Don't believe, oh, what they tell about me
Love is like a crazy symphonie
Don't believe in my heart it's rainin', rainin', rainin'..
_____________________________________________________________________________
-> VERSE 3:

e:|-------------------------------------------------------------------------|
B:|-------------------------------------------------------------------------|
G:|----8-\------------------------------------------------------------------|
D:|----8- } x16------10-\------------6-\------------8-\---------------------|
A:|----6-/-----------10- } x-16------6- } x16-------8- } x16----------------|
E:|------------------ 8-/------------4-/------------6-/---------------------|
       pm            pm              pm             pm

Lyrics:

Break a heart of stone
Careless memories
Can those in the wind
Can't turn back the years
And Heaven is a million miles away - for you girl
_____________________________________________________________________________
-> PRE-CHORUS:

e:|-------------------------------------------------------------------------|
B:|-------------------------------------------------------------------------|
G:|----8-\------------------------------------------------------------------|
D:|----8- } x16------10-\------------6-\------------8-\---------------------|
A:|----6-/-----------10- } x-16------6- } x16-------8- } x16--THEN LET RING!|
E:|------------------ 8-/------------4-/------------6-/---------------------|
       pm            pm              pm             pm

Lyrics:

I know it's not an easy love (easy love)
Don't never leave me, it's so tough (it's so tough)
Cause you're the angel of my heart (of my heart)
Sometimes a devil in the dark (in the dark)
_____________________________________________________________________________
-> CHORUS:

e:|-------------------------------------------------------------------------|
B:|-------------------------------------------------------------------------|
G:|----8-\------------------------------------------------------------------|
D:|----8- } x16------10-\------------6-\------------8-\---------------------|
A:|----6-/-----------10- } x-16------6- } x16-------8- } x16----------------|
E:|------------------ 8-/------------4-/------------6-/---------------------|

e:|-------------------------------------------------------------------------|
B:|-------------------------------------------------------------------------|
G:|----8-\------------------------------------------------------------------|
D:|----8- } x16------10-\------------6-\------------8-\---------------------|
A:|----6-/-----------10- } x-16------6- } x16-------8- } x16--..LET RING!---|
E:|------------------ 8-/------------4-/------------6-/---------------------|

Lyrics:

Don't believe, oh, what they tell about me
Don't believe - it's only mistery
Don't believe in my heart it's rainin', rainin', rainin'..
Don't believe, oh, what they tell about me
Love is like a crazy symphonie
Don't believe in my heart it's rainin', rainin', rainin'..
_____________________________________________________________________________
-> FINAL CHORUS:

...drums...then:

e:|-------------------------------------------------------------------------|
B:|-------------------------------------------------------------------------|
G:|----8-\------------------------------------------------------------------|
D:|----8- } x16------10-\------------6-\------------8-\---------------------|
A:|----6-/-----------10- } x-16------6- } x16-------8- } x16----------------|
E:|------------------ 8-/------------4-/------------6-/---------------------|

e:|-------------------------------------------------------------------------|
B:|-------------------------------------------------------..LET RING!-------|
G:|----8-\--------------------------------------------------------8~--------|
D:|----8- } x16------10-\------------6-\------------8-\-----------8~--------|
A:|----6-/-----------10- } x-16------6- } x16-------8- } x16------6~--------|
E:|------------------ 8-/------------4-/------------6-/---------------------|

Lyrics:

Don't believe, oh, what they tell about me
Don't believe - it's only mistery
Don't believe in my heart it's rainin', rainin', rainin'..
Don't believe, oh, what they tell about me
Love is like a crazy symphonie
Don't believe in my heart it's rainin', rainin', rainin'..
Don't believe, oh, what they tell about me...
_____________________________________________________________________________


Something to the PM: You can choose, how do you want to play it!



So, that's it!
I think it's nearly 100% correct. But, please let me know, if there are any 
mistakes or something like that.
And PLEASE RATE!

Thank you.
Your NickelbackNB95! :)





LEGEND:

The only things I used were:  ~ = LET RING
                             pm = Palm Mute
                            16x = Play 16 times

..but I think it was clear ;)


Tap to rate this tab
 
# A B C D E F G H I J K L M N O P Q R S T U V W X Y Z