Song name
# A B C D E F G H I J K L M N O P Q R S T U V W X Y Z

Misc Unsigned Bands - Gotcha - Higher chords

Highlighted       Show chord diagrams
Higher   Gotcha!

D = x-5-7-7-x-x--------|
G7#9 = x-10-9-10-x-x---|
E = x-7-9-9-x-x--------|
G = x-10-12-12-x-x-----|
A7 = 5-7-5-6-5-5-------|

Intro:

E|-------------------------------|
B|-------------------------------|
G|---7-6--7--8-9-----------------|
D|-------------------------------|
A|-------------------------------|
E|-------------------------------|


E         D   G                                      E  D   G7#9 E
Iím smoking, feeling good and sometimes feeling sad.
D        G                                  E      D
Smoking, feeling good and sometimes feeling blue, cause I can
G7#9
no higher.

A7
I can get no higher.
D
I can get no feeling out of your desire.
A7                           D
Canít you feel my fire burning, burning, burning.
A7
I can get no higher.
D  stop
Iím sick of be my ...... on fire.

Varieer wat met deze noten.
E|--------------------------|
B|--------------------------|
G|--------------------------|
D|--------------------------|
A|---12-10------------------|
E|--------------10ó12-------|

Intro.


Smoking, feeling good and sometimes feeling sad.
I can get no higher.
Smoking, feeling good and sometimes feeling blue, cause I can no higher.

I can get no higher.
I can get no feeling out of your desire.
Canít you feel my fire burning, burning, burning.
I can get no higher.
Iím sick of be my tuck on fire.

The moon is high and underneath the clouds.
There is a feeling I canít get knocked out, I canít get higher.
Smoking, feeling dude and sometimes feeling BLUE!
Oh girl, what are we gonna do.

I can get no higher.
I can get no feeling out of your desire.
Canít you feel my fire burning, burning, burning.
I can get no higher.
Iím sick of be my tuck on fire.

A7                                       D
Iíve gotta take you higher.

Geen akkoorden.
The feeling is getting strong.
Its getting stronger day by day, day by day by day. (day by day by day)

I can get no higher.
I can get no feeling out of your desire.
Canít you feel my fire burning, burning, burning.
I can get no higher.
Iím stuck of be my funky fire.
Tap to rate this tab
# A B C D E F G H I J K L M N O P Q R S T U V W X Y Z