Song name
# A B C D E F G H I J K L M N O P Q R S T U V W X Y Z

Misc Unsigned Bands - Geri X - Youre A Pearl Live tab

-------------------------------------------------------------------------------
			     YOURE A PEARL - Geri X
-------------------------------------------------------------------------------
I looked all over for some tabs of this and some other songs by Geri X, couldn't find any.
Saw a live video of her performing You're A Pearl.
It's by far my favorite song by her.
So I thought I would take a crack at a tab.

This is my first ever tab, its fairly accurate I think.  Listen to the song to get the 
down.

Tabbed by: Paska
Email: johnpaskalides@gmail.com

Tuning: Standard

Capo 5th fret

Chords Used:

  C  F  Am  Dm  G
e|-0--0--0--1--3-------|
b|-1--1--1--3--0-------|
g|-2--2--2--2--0-------|
d|-0--3--2--0--0-------|
a|-3--0--0-----2-------|
e|-------------3-------|

intro:
     C                  F
e|--0-----------0--------0----------1--0---------|
b|--1--------1-----1-----1-------1--------1------|
g|--2-----2-----------2--2-----2-----------------|      x2
d|--0--------------------3--3--------------------|
a|--3--3-----------------0-----------------------|
e|-----------------------------------------------|


C
   Come back, come back, come back
               F
   And I will show you a world of light
C
   Come back, come back, come back
               F
   And we'll stay up talking all night
C
   Come back, come back, come back
               F
   And we'll bathe in the sunlight
C
   Come back, come back, come back
               F                 Dm G
   And wrap your arms and hold me tight
           Dm G
   hold me tight


            C                   Am  Dm  G
And I will wait for you to come home to me
            C               Am             Dm    G
And if you're late, I will wait until you're ready
            C               Am      Dm   G
But I'm struggling 'cause I miss you terribly
C
But I'll wait for you to come home
C
There's no one else here for me


REPLAY INTRO


C
   Come back, come back, come back
               F
   And we'll do things we said we'd do
C
   Come back, come back, come back
               F
   I'm leaking feelings enough for two
C
   Come back, come back, come back
               F
   Since you left, I've been seeing blue
C
   Come back, come back, come back
               F                 Dm G
   I can't take my mind off of you
           Dm G
   off of you


            C                   Am  Dm  G
And I will wait for you to come home to me
            C               Am             Dm    G
And if you're late, I will wait until you're ready
            C               Am      Dm   G
But I'm struggling 'cause I miss you terribly
C
But I'll wait for you to come home
C
There's no one else here for me


REPLAY INTRO


breakdown:
e|--5---------3--------0---------0-------------|
b|--6---------4--------1---------0-------------|
g|--7-x12-----5-x2-----2-x12-----2-x2----------|   x4
d|--7---------5--------0---------0-------------|
a|--5---------3--------3---------3-------------|
e|--5---------3--------------------------------|


            C                   Am  Dm  G
And I will wait for you to come home to me
            C               Am             Dm    G
And if you're late, I will wait until you're ready
            C               Am      Dm   G
But I'm struggling 'cause I miss you terribly
C
But I'll wait for you to come home
C
There's no one else here for me


REPLAY INTRO


C
   Come back, come back, come back
               F
   I wanna see your pretty face again
C
   Come back, come back, come back
               F
   And I wont be sad when
C
   Come back, come back, come back
               F
   And if you can't please tell me when
C
   Come back, come back, come back
               F
   I want to sit next to you, again


REPLAY INTRO - end on C
Tap to rate this tab
# A B C D E F G H I J K L M N O P Q R S T U V W X Y Z