Song name
# A B C D E F G H I J K L M N O P Q R S T U V W X Y Z

Misc Unsigned Bands - Dlay - On Your Own tab

On Your Own - D'lay 

Standard tuning: E A D G B E



                   Intro
---------------------------------------------|
---------------------------------------------|
--------5-5------5-xx----------7------7h9-7--|
--------5-5------5-xx--5-------7------7h9-7--|
----0-0-----0-3-3------5-------5--7h9--------|
-----------------------3-5h6h7---------------|


---------------------------------------------|
---------------------------------------------|
--------5-5------5-xx------------7---7\------|
--------5-5------5-xx---5--------7---7\------|
----0-0-----0-3-3-------5--------5---5\------|
------------------------3-5h6h7--------------|



                   Vers
---------------------------------------------|
---------------------------------------------|
--------5-5------5-xx----------7------7h9-7--|
--------5-5------5-xx--5-------7------7h9-7--|
----0-0-----0-3-3------5-------5--7h9--------|
-----------------------3-5h6h7---------------|


---------------------------------------------|
-------------------------------------7h8p7---|
--------5-5------5-xx-----------7--7-7-------|
--------5-5------5-xx-----------7--7---------|
----3-3------3-3--------2--2----5------------|
------------------------3--3-----------------|


-----------------------------------3----3----|
-----------------------------------3----3----|
--------5-5------5-xx--7------7----0----0----|
--------5-5------5-xx--7------7----0----0----|
----0-0-----0-3-3------5--7h9------2--2-2----|
-----------------------------------3--3-3----|


---------------------------------------------|
-------------7h8p7--------5------------------|
--------7-7--7------------5--7----7----------|
--------7-7--------0----5----7----7----------|
----5-5-7-------------3------5----5----------|
---------------------------------------------| 



                 Chorus

Am---C---G---F-D

Sveinung Borvik
Tap to rate this tab
# A B C D E F G H I J K L M N O P Q R S T U V W X Y Z