Song name
# A B C D E F G H I J K L M N O P Q R S T U V W X Y Z

Misc Unsigned Bands - Hugh Wilson - Falling Away tab

Hugh Wilson -  I'm falling away

Intro
0:06-0:26
        Let ring
|-------------------------|
|                         |
E-----------------------------------------------------------------------|
B---------------7------7--------0------0--------------------------------|
G----------------------7--------0------0--------------------------------|
D--------7--7----------7--------0----x-0--2-----------------------------|
A--------5--5------5-----------------x----0-----------------------------|
E--7--7----------------------3------------------------------------------|
                             .
        Let ring
|----------------------------|
|                            |
E-----------------------------------------------------------------------|
B--------------------------7------0-------------------------------------|
G--------------------------7------0-------------------------------------|
D-------7--7---------------7------0-------------------------------------|
A-------5--5--5--5--5---------------------------------------------------|
E--7-7--------------------------3---------------------------------------|
              .  .  .           .

        Let ring
|--------------------|
|                    |
E-----------------------------------------------------------|
B-------------------7------0--0--------0--------------------|
G-------------------7------0--0--------0--------------------|
D-------7--7--------7------0--0--------0--------------------|
A-------5--5--5--5--------------5-5-------------------------|
E--7-7------------------3-------3-3-------------------------|
                        .       . .
        Let ring
|----------------------|
|                      |
E----------------------------------------------------------------|
B---------------------7------0-----------------------------------|
G---------------------7------0-----------------------------------|
D------7--7-----------7------0-----------------------------------|
A------5--5--5--5--5---------------------------------------------|
E-7--7--------------------3--------------------------------------|
             .  .  .      .

It's Just intro!
Tap to rate this tab
# A B C D E F G H I J K L M N O P Q R S T U V W X Y Z