Song name
# A B C D E F G H I J K L M N O P Q R S T U V W X Y Z

Misc Unsigned Bands - Tylar Akana - Rein-state tab

-= Tabs for Rein-state =-

==================================================================================

Guitar Help
==================================================================================
-= Tabs for Rein-state =-

==================================================================================

Guitar Help
==================================================================================

o = Open
m = Palm-Muted
x = Harmonics
r = Reversed Swell.  Achieved with the volume button or a volume pedal.

==================================================================================

Guitar 1 Tabs
==================================================================================

  0:00
E ------------------------------------------------------------------------------------------------|
B ------------------------------------------------------------------------------------------------|
G ------------------------------------------------------------------------------------------------|
D 2-----------------------------------------------------------------------------------------------|
A 2-----------------------------------------------------------------------------------------------|
E 0-----------------------------------------------------------------------------------------------|
  o-----------------------------------------------------------------------------------------------|

  0:02
E ------------------------------------------------------------------------------------------------|
B ------------------------------------------------------------------------------------------------|
G ------------------------------------------------------------------------------------------------|
D ------------------------------------------------------------------------------------------------|
A ------------------------------------------------------------------------------------------------|
E ------------------------------------------------------------------------------------------------|
  ------------------------------------------------------------------------------------------------|

  0:05
E ------------------------------------------------------------------------------------------------|
B ------------------------------------------------------------------------------------------------|
G ------------------------------------------------------------------------------------------------|
D ------------------------------------------------------------------------------------------------|
A ------------------------------------------------------------------------------------------------|
E ------------------------------------------------------------------------------------------------|
  ------------------------------------------------------------------------------------------------|

  0:08
E ------------------------------------------------------------------------------------------------|
B ------------------------------------------------------------------------------------------------|
G ------------------------------------------------------------------------------------------------|
D ------------------------------------------------------------------------------------------------|
A ------------------------------------------------------------------------------------------------|
E ------------------------------------------------------------------------------------------------|
  ------------------------------------------------------------------------------------------------|

  0:11
E ------------------------------------------------------------------------------------------------|
B ------------------------------------------------------------------------------------------------|
G 8-----8--8-----8--8-----5-----5-----------5-----------------------------------------------------|
D 8-----8--8-----8--8-----5-----5--8-----8--5-----5-----------------------------------------------|
A 6-----6--6-----6--6-----3-----3--8-----8--3-----5-----5--5--5--5--5--5--5--5--5--5--5--5--5--5--|
E ---------------------------------6-----6--------3-----3--3--3--3--3--3--3--3--3--3--3--3--3--3--|
  o--o--o--o--o--o--o--o--o--o--o--o--o--o--o--o--o-----m--m--m--m--m--m--m--m--m--m--m--m--m--m--|

  0:14
E ------------------------------------------------------------------------------------------------|
B ------------------------------------------------------------------------------------------------|
G ------------------------------------------------------------------------------------------------|
D 2-----2--2--2--2--2--2--2--2--2--2--2--2--2--2--3-----3--3--3--3--3--3--3--3--3--3--3--3--3--3--|
A 2-----2--2--2--2--2--2--2--2--2--2--2--2--2--2--3-----3--3--3--3--3--3--3--3--3--3--3--3--3--3--|
E 0-----0--0--0--0--0--0--0--0--0--0--0--0--0--0--1-----1--1--1--1--1--1--1--1--1--1--1--1--1--1--|
  o-----m--m--m--m--m--m--m--m--m--m--m--m--m--m--o-----m--m--m--m--m--m--m--m--m--m--m--m--m--m--|

  0:16
E ------------------------------------------------------------------------------------------------|
B ------------------------------------------------------------------------------------------------|
G 8-----8--8-----8--8-----5-----5-----------5-----------------------------------------------------|
D 8-----8--8-----8--8-----5-----5--8-----8--5-----5-----------------------------------------------|
A 6-----6--6-----6--6-----3-----3--8-----8--3-----5-----5--5--5--5--5--5--5--5--5--5--5--5--5--5--|
E ---------------------------------6-----6--------3-----3--3--3--3--3--3--3--3--3--3--3--3--3--3--|
  o--o--o--o--o--o--o--o--o--o--o--o--o--o--o--o--o-----m--m--m--m--m--m--m--m--m--m--m--m--m--m--|

  0:19
E ------------------------------------------------------------------------------------------------|
B ------------------------------------------------------------------------------------------------|
G ------------------------------------------------------------------------------------------------|
D 2-----2--2--2--2--2--2--2--2--2--2--2--2--2--2--3-----3--3--3--3--3--3--3--3--3--3--3--3--3--3--|
A 2-----2--2--2--2--2--2--2--2--2--2--2--2--2--2--3-----3--3--3--3--3--3--3--3--3--3--3--3--3--3--|
E 0-----0--0--0--0--0--0--0--0--0--0--0--0--0--0--1-----1--1--1--1--1--1--1--1--1--1--1--1--1--1--|
  o-----m--m--m--m--m--m--m--m--m--m--m--m--m--m--o-----m--m--m--m--m--m--m--m--m--m--m--m--m--m--|

  0:22
E ------------------------------------------------------------------------------------------------|
B ------------------------------------------------------------------------------------------------|
G 8-----8--8-----8--8-----5-----5-----------5-----------------------------------------------------|
D 8-----8--8-----8--8-----5-----5--8-----8--5-----5-----------------------------------------------|
A 6-----6--6-----6--6-----3-----3--8-----8--3-----5-----5--5--5--5--5--5--5--5--5--5--5--5--5--5--|
E ---------------------------------6-----6--------3-----3--3--3--3--3--3--3--3--3--3--3--3--3--3--|
  o--o--o--o--o--o--o--o--o--o--o--o--o--o--o--o--o-----m--m--m--m--m--m--m--m--m--m--m--m--m--m--|

  0:25
E ------------------------------------------------------------------------------------------------|
B ------------------------------------------------------------------------------------------------|
G ------------------------------------------------------------------------------------------------|
D 2-----2--2--2--2--2--2--2--2--2--2--2--2--2--2--3-----3--3--3--3--3--3--3--3--3--3--3--3--3--3--|
A 2-----2--2--2--2--2--2--2--2--2--2--2--2--2--2--3-----3--3--3--3--3--3--3--3--3--3--3--3--3--3--|
E 0-----0--0--0--0--0--0--0--0--0--0--0--0--0--0--1-----1--1--1--1--1--1--1--1--1--1--1--1--1--1--|
  o-----m--m--m--m--m--m--m--m--m--m--m--m--m--m--o-----m--m--m--m--m--m--m--m--m--m--m--m--m--m--|

  0:28
E ------------------------------------------------------------------------------------------------|
B ------------------------------------------------------------------------------------------------|
G 12----12-12-12-12-10----7-----7-----12----10----12----12-12-12-12-10----7-----7-----12----10----|
D ------------------------------------------------------------------------------------------------|
A ------------------------------------------------------------------------------------------------|
E ------------------------------------------------------------------------------------------------|
  m-----m--m--m--m--m-----m-----m-----m-----m-----m-----m--m--m--m--m-----m-----m-----m-----m-----|

  0:31
E 10----10----------------------------------------10----10----------------------------------------|
B ------------11----11----------------11----11----------------11----11----------------11----11----|
G ------------------------12----12----------------------------------------12----12----------------|
D ------------------------------------------------------------------------------------------------|
A ------------------------------------------------------------------------------------------------|
E ------------------------------------------------------------------------------------------------|
  m-----m-----m-----m-----m-----m-----m-----m-----m-----m-----m-----m-----m-----m-----m-----m-----|

  0:33
E ------------------------------------------------------------------------------------------------|
B ------------------------------------------------------------------------------------------------|
G 12----12-12-12-12-10----7-----7-----12----10----12----12-12-12-12-10----7-----7-----12----10----|
D ------------------------------------------------------------------------------------------------|
A ------------------------------------------------------------------------------------------------|
E ------------------------------------------------------------------------------------------------|
  m-----m--m--m--m--m-----m-----m-----m-----m-----m-----m--m--m--m--m-----m-----m-----m-----m-----|

  0:36
E 10----10----------------------------------------10----10----------------------------------------|
B ------------11----11----------------11----11----------------11----11----------------11----11----|
G ------------------------12----12----------------------------------------12----12----------------|
D ------------------------------------------------------------------------------------------------|
A ------------------------------------------------------------------------------------------------|
E ------------------------------------------------------------------------------------------------|
  m-----m-----m-----m-----m-----m-----m-----m-----m-----m-----m-----m-----m-----m-----m-----m-----|

  0:39
E ------------------------------------------------------------------------------------------------|
B ------------------------------------------------------------------------------------------------|
G 12----12-12-12-12-10----7-----7-----12----10----12----12-12-12-12-10----7-----7-----12----10----|
D ------------------------------------------------------------------------------------------------|
A ------------------------------------------------------------------------------------------------|
E ------------------------------------------------------------------------------------------------|
  m-----m--m--m--m--m-----m-----m-----m-----m-----m-----m--m--m--m--m-----m-----m-----m-----m-----|

  0:42
E 10----10----------------------------------------10----10----------------------------------------|
B ------------11----11----------------11----11----------------11----11----------------11----11----|
G ------------------------12----12----------------------------------------12----12----------------|
D ------------------------------------------------------------------------------------------------|
A ------------------------------------------------------------------------------------------------|
E ------------------------------------------------------------------------------------------------|
  m-----m-----m-----m-----m-----m-----m-----m-----m-----m-----m-----m-----m-----m-----m-----m-----|

  0:45
E ------------------------------------------------------------------------------------------------|
B 11----11----------10----8-----8-----------10----8-----8-----------10----11----11----------10----|
G ------------------------------------------------------------------------------------------------|
D ------------------------------------------------------------------------------------------------|
A ------------------------------------------------------------------------------------------------|
E ------------------------------------------------------------------------------------------------|
  o-----o-----------o-----o-----o-----------o-----o-----o-----------o-----o-----o-----------o-----|

  0:47
E ------------------------------------------------------------------------------------------------|
B 11----------10----------8-----------6-----------8-----------------------------------------------|
G ------------------------------------------------------------------------------------------------|
D ------------------------------------------------------------------------------------------------|
A ------------------------------------------------------------------------------------------------|
E ------------------------------------------------------------------------------------------------|
  o-----------o-----------o-----------o-----------o-----------------------------------------------|

  0:50
E ------------------------------------------------------------------------------------------------|
B ------------------------------------------------------------------------------------------------|
G ------------------8-----------8-----------------------------------5-----------5-----------------|
D ------------8-----------------------------8-----------------5-----------------------------5-----|
A 6-----6-----------------------------------------3-----3-----------------------------------------|
E ------------------------------------------------------------------------------------------------|
  m-----m-----o-----o-----------o-----------o-----m-----m-----o-----o-----------o-----------o-----|

  0:53
E ------------------------------------------------------------------------------------------------|
B ------------------------------------------------------------------------------------------------|
G ------------------------------------------------------------------------------------------------|
D ------------------5-----------5-----------------------------------8-----------8-----------------|
A ------------5-----------------------------5-----------------8-----------------------------8-----|
E 3-----3-----------------------------------------6-----6-----------------------------------------|
  m-----m-----o-----o-----------o-----------o-----m-----m-----o-----o-----------o-----------o-----|

  0:56
E ------------------------------------------------------------------------------------------------|
B ------------------------------------------------------------------------------------------------|
G ------------------8-----------8-----------------------------------5-----------5-----------------|
D ------------8-----------------------------8-----------------5-----------------------------5-----|
A 6-----6-----------------------------------------3-----3-----------------------------------------|
E ------------------------------------------------------------------------------------------------|
  m-----m-----o-----o-----------o-----------o-----m-----m-----o-----o-----------o-----------o-----|

  0:59
E ------------------------------------------------------------------------------------------------|
B 11----------10----------8-----------6-----------8-----------------------------------------------|
G ------------------------------------------------------------------------------------------------|
D ------------------------------------------------------------------------------------------------|
A ------------------------------------------------------------------------------------------------|
E ------------------------------------------------------------------------------------------------|
  o-----------o-----------o-----------o-----------o-----------------------------------------------|

  1:02
E ------------------------------------------------------------------------------------------------|
B ------------------------------------------------------------------------------------------------|
G ------------------------------------------------------------------------------------------------|
D ------------------------------------------------------------------------------------------------|
A ------------------------------------------------------------------------------------------------|
E ------------------------------------------------------------------------------------------------|
  ------------------------------------------------------------------------------------------------|

  1:04
E ------------------------------------------------------------------------------------------------|
B ------------------------------------------------------------------------------------------------|
G ------------------------------------------------------------------------------------------------|
D ------------------------------------------------------------------------------------------------|
A ------------------------------------------------------------------------------------------------|
E ------------------------------------------------------------------------------------------------|
  ------------------------------------------------------------------------------------------------|

  1:07
E ------------------------------------------------------------------------------------------------|
B ------------------------------------------------------------------------------------------------|
G ------------------------------------------------------------------------------------------------|
D ------------------------------------------------------------------------------------------------|
A ------------------------------------------------------------------------------------------------|
E ------------------------------------------------------------------------------------------------|
  ------------------------------------------------------------------------------------------------|

  1:10
E ------------------------------------------------------------------------------------------------|
B ------------------------------------------------------------------------------------------------|
G ------------------------------------------------------------------------------------------------|
D ------------------------------------------------------------------------------------------------|
A ------------------------------------------------------------------------------------------------|
E ------------------------------------------------------------------------------------------------|
  ------------------------------------------------------------------------------------------------|

  1:13
E ------------------------------------------------------------------------------------------------|
B ------------------------------------------------------------------------------------------------|
G ------------------8-----------8-----------------------------------5-----------5-----------------|
D ------------8-----------------------------8-----------------5-----------------------------5-----|
A 6-----6-----------------------------------------3-----3-----------------------------------------|
E ------------------------------------------------------------------------------------------------|
  m-----m-----o-----o-----------o-----------o-----m-----m-----o-----o-----------o-----------o-----|

  1:16
E ------------------------------------------------------------------------------------------------|
B ------------------------------------------------------------------------------------------------|
G ------------------------------------------------------------------------------------------------|
D ------------------5-----------5-----------------------------------8-----------8-----------------|
A ------------5-----------------------------5-----------------8-----------------------------8-----|
E 3-----3-----------------------------------------6-----6-----------------------------------------|
  m-----m-----o-----o-----------o-----------o-----m-----m-----o-----o-----------o-----------o-----|

  1:19
E ------------------------------------------------------------------------------------------------|
B ------------------------------------------------------------------------------------------------|
G ------8-----------8-----------8-----------8-----------5-----------5-----------5-----------5-----|
D ------8-----------8-----------8-----------8-----------5-----------5-----------5-----------5-----|
A ------6-----------6-----------6-----------6-----------3-----------3-----------3-----------3-----|
E ------------------------------------------------------------------------------------------------|
  ---o--o--------o--o--------o--o--------o--o--------o--o--------o--o--------o--o--------o--o-----|

  1:21
E ------------------------------------------------------------------------------------------------|
B ------------------------------------------------------------------------------------------------|
G ------1-----------1-----------1-----------1-----------1-----------1-----------1-----------1-----|
D ------5-----------5-----------5-----------5-----------8-----------8-----------8-----------8-----|
A ------5-----------5-----------5-----------5-----------8-----------8-----------8-----------8-----|
E ------3-----------3-----------3-----------3-----------6-----------6-----------6-----------6-----|
  ---o--o--------o--o--------o--o--------o--o--------o--o--------o--o--------o--o--------o--o-----|

  1:24
E ------------------------------------------------------------------------------------------------|
B ------------------------------------------------------------------------------------------------|
G ------8-----------8-----------8-----------8-----------5-----------5-----------5-----------5-----|
D ------8-----------8-----------8-----------8-----------5-----------5-----------5-----------5-----|
A ------6-----------6-----------6-----------6-----------3-----------3-----------3-----------3-----|
E ------------------------------------------------------------------------------------------------|
  ---o--o--------o--o--------o--o--------o--o--------o--o--------o--o--------o--o--------o--o-----|

  1:27
E ------------------------------------------------------------------------------------------------|
B ------------------------------------------------------------------------------------------------|
G ------1-----------1-----------1-----------1-----------1-----------1-----------1-----------1-----|
D ------5-----------5-----------5-----------5-----------8-----------8-----------8-----------8-----|
A ------5-----------5-----------5-----------5-----------8-----------8-----------8-----------8-----|
E ------3-----------3-----------3-----------3-----------6-----------6-----------6-----------6-----|
  ---o--o--------o--o--------o--o--------o--o--------o--o--------o--o--------o--o--------o--o-----|

  1:30
E ------------------------------------------------------------------------------------------------|
B ------------------------------------------------------------------------------------------------|
G ------1-----------1-----------1-----------1-----8-----8--8-----8--8-----5-----5-----------5-----|
D ------8-----------8-----------8-----------8-----8-----8--8-----8--8-----5-----5--8-----8--5-----|
A ------8-----------8-----------8-----------8-----6-----6--6-----6--6-----3-----3--8-----8--3-----|
E ------6-----------6-----------6-----------6--------------------------------------6-----6--------|
  ---o--o--------o--o--------o--o--------o--o-----o--o--o--o--o--o--o--o--o--o--o--o--o--o--o--o--|

  1:33
E ------------------------------------------------------------------------------------------------|
B ------------------------------------------------------------------------------------------------|
G ------------------------------------------------------------------------------------------------|
D 5-----------------------------------------------2-----2--2--2--2--2--2--2--2--2--2--2--2--2--2--|
A 5-----5--5--5--5--5--5--5--5--5--5--5--5--5--5--2-----2--2--2--2--2--2--2--2--2--2--2--2--2--2--|
E 3-----3--3--3--3--3--3--3--3--3--3--3--3--3--3--0-----0--0--0--0--0--0--0--0--0--0--0--0--0--0--|
  o-----m--m--m--m--m--m--m--m--m--m--m--m--m--m--o-----m--m--m--m--m--m--m--m--m--m--m--m--m--m--|

  1:35
E ------------------------------------------------------------------------------------------------|
B ------------------------------------------------------------------------------------------------|
G ------------------------------------------------8-----8--8-----8--8-----5-----5-----------5-----|
D 3-----3--3--3--3--3--3--3--3--3--3--3--3--3--3--8-----8--8-----8--8-----5-----5--8-----8--5-----|
A 3-----3--3--3--3--3--3--3--3--3--3--3--3--3--3--6-----6--6-----6--6-----3-----3--8-----8--3-----|
E 1-----1--1--1--1--1--1--1--1--1--1--1--1--1--1-----------------------------------6-----6--------|
  o-----m--m--m--m--m--m--m--m--m--m--m--m--m--m--o--o--o--o--o--o--o--o--o--o--o--o--o--o--o--o--|

  1:38
E ------------------------------------------------------------------------------------------------|
B ------------------------------------------------------------------------------------------------|
G ------------------------------------------------------------------------------------------------|
D 5-----------------------------------------------2-----2--2--2--2--2--2--2--2--2--2--2--2--2--2--|
A 5-----5--5--5--5--5--5--5--5--5--5--5--5--5--5--2-----2--2--2--2--2--2--2--2--2--2--2--2--2--2--|
E 3-----3--3--3--3--3--3--3--3--3--3--3--3--3--3--0-----0--0--0--0--0--0--0--0--0--0--0--0--0--0--|
  o-----m--m--m--m--m--m--m--m--m--m--m--m--m--m--o-----m--m--m--m--m--m--m--m--m--m--m--m--m--m--|

  1:41
E ------------------------------------------------------------------------------------------------|
B ------------------------------------------------------------------------------------------------|
G ------------------------------------------------8-----8--8-----8--8-----5-----5-----------5-----|
D 3-----3--3--3--3--3--3--3--3--3--3--3--3--3--3--8-----8--8-----8--8-----5-----5--8-----8--5-----|
A 3-----3--3--3--3--3--3--3--3--3--3--3--3--3--3--6-----6--6-----6--6-----3-----3--8-----8--3-----|
E 1-----1--1--1--1--1--1--1--1--1--1--1--1--1--1-----------------------------------6-----6--------|
  o-----m--m--m--m--m--m--m--m--m--m--m--m--m--m--o--o--o--o--o--o--o--o--o--o--o--o--o--o--o--o--|

  1:44
E ------------------------------------------------------------------------------------------------|
B ------------------------------------------------------------------------------------------------|
G ------------------------------------------------------------------------------------------------|
D 5-----------------------------------------------2-----2--2--2--2--2--2--2--2--2--2--2--2--2--2--|
A 5-----5--5--5--5--5--5--5--5--5--5--5--5--5--5--2-----2--2--2--2--2--2--2--2--2--2--2--2--2--2--|
E 3-----3--3--3--3--3--3--3--3--3--3--3--3--3--3--0-----0--0--0--0--0--0--0--0--0--0--0--0--0--0--|
  o-----m--m--m--m--m--m--m--m--m--m--m--m--m--m--o-----m--m--m--m--m--m--m--m--m--m--m--m--m--m--|

  1:47
E ------------------------------------------------------------------------------------------------|
B ------------------------------------------------------------------------------------------------|
G ------------------------------------------------12----12-12-12-12-10----7-----7-----12----10----|
D 3-----3--3--3--3--3--3--3--3--3--3--3--3--3--3--------------------------------------------------|
A 3-----3--3--3--3--3--3--3--3--3--3--3--3--3--3--------------------------------------------------|
E 1-----1--1--1--1--1--1--1--1--1--1--1--1--1--1--------------------------------------------------|
  o-----m--m--m--m--m--m--m--m--m--m--m--m--m--m--m-----m--m--m--m--m-----m-----m-----m-----m-----|

  1:50
E ------------------------------------------------10----10----------------------------------------|
B ------------------------------------------------------------11----11----------------11----11----|
G 12----12-12-12-12-10----7-----7-----12----10----------------------------12----12----------------|
D ------------------------------------------------------------------------------------------------|
A ------------------------------------------------------------------------------------------------|
E ------------------------------------------------------------------------------------------------|
  m-----m--m--m--m--m-----m-----m-----m-----m-----m-----m-----m-----m-----m-----m-----m-----m-----|

  1:52
E 10----10----------------------------------------------------------------------------------------|
B ------------11----11----------------11----11----------------------------------------------------|
G ------------------------12----12----------------12----12-12-12-12-10----7-----7-----12----10----|
D ------------------------------------------------------------------------------------------------|
A ------------------------------------------------------------------------------------------------|
E ------------------------------------------------------------------------------------------------|
  m-----m-----m-----m-----m-----m-----m-----m-----m-----m--m--m--m--m-----m-----m-----m-----m-----|

  1:55
E ------------------------------------------------10----10----------------------------------------|
B ------------------------------------------------------------11----11----------------11----11----|
G 12----12-12-12-12-10----7-----7-----12----10----------------------------12----12----------------|
D ------------------------------------------------------------------------------------------------|
A ------------------------------------------------------------------------------------------------|
E ------------------------------------------------------------------------------------------------|
  m-----m--m--m--m--m-----m-----m-----m-----m-----m-----m-----m-----m-----m-----m-----m-----m-----|

  1:58
E 10----10----------------------------------------------------------------------------------------|
B ------------11----11----------------11----11----------------------------------------------------|
G ------------------------12----12----------------12----12-12-12-12-10----7-----7-----12----10----|
D ------------------------------------------------------------------------------------------------|
A ------------------------------------------------------------------------------------------------|
E ------------------------------------------------------------------------------------------------|
  m-----m-----m-----m-----m-----m-----m-----m-----m-----m--m--m--m--m-----m-----m-----m-----m-----|

  2:01
E ------------------------------------------------10----10----------------------------------------|
B ------------------------------------------------------------11----11----------------11----11----|
G 12----12-12-12-12-10----7-----7-----12----10----------------------------12----12----------------|
D ------------------------------------------------------------------------------------------------|
A ------------------------------------------------------------------------------------------------|
E ------------------------------------------------------------------------------------------------|
  m-----m--m--m--m--m-----m-----m-----m-----m-----m-----m-----m-----m-----m-----m-----m-----m-----|

  2:04
E 10----10----------------------------------------------------------------------------------------|
B ------------11----11----------------11----11----11----11----------10----8-----8-----------10----|
G ------------------------12----12----------------------------------------------------------------|
D ------------------------------------------------------------------------------------------------|
A ------------------------------------------------------------------------------------------------|
E ------------------------------------------------------------------------------------------------|
  m-----m-----m-----m-----m-----m-----m-----m-----o-----o-----------o-----o-----o-----------o-----|

  2:06
E ------------------------------------------------------------------------------------------------|
B 8-----8-----------10----11----11----------10----11----------10----------8-----------6-----------|
G ------------------------------------------------------------------------------------------------|
D ------------------------------------------------------------------------------------------------|
A ------------------------------------------------------------------------------------------------|
E ------------------------------------------------------------------------------------------------|
  o-----o-----------o-----o-----o-----------o-----o-----------o-----------o-----------o-----------|

  2:09
E ------------------------------------------------------------------------------------------------|
B 8-----------------------------------------------------------------------------------------------|
G ------------------------------------------------8-----8--8-----8--8-----5-----5-----------5-----|
D ------------------------------------------------8-----8--8-----8--8-----5-----5--8-----8--5-----|
A ------------------------------------------------6-----6--6-----6--6-----3-----3--8-----8--3-----|
E ---------------------------------------------------------------------------------6-----6--------|
  o-----------------------------------------------o--o--o--o--o--o--o--o--o--o--o--o--o--o--o--o--|

  2:12
E ------------------------------------------------------------------------------------------------|
B ------------------------------------------------------------------------------------------------|
G ------------------------------------------------------------------------------------------------|
D 5-----------------------------------------------2-----2--2--2--2--2--2--2--2--2--2--2--2--2--2--|
A 5-----5--5--5--5--5--5--5--5--5--5--5--5--5--5--2-----2--2--2--2--2--2--2--2--2--2--2--2--2--2--|
E 3-----3--3--3--3--3--3--3--3--3--3--3--3--3--3--0-----0--0--0--0--0--0--0--0--0--0--0--0--0--0--|
  o-----m--m--m--m--m--m--m--m--m--m--m--m--m--m--o-----m--m--m--m--m--m--m--m--m--m--m--m--m--m--|

  2:15
E ------------------------------------------------------------------------------------------------|
B ------------------------------------------------------------------------------------------------|
G ------------------------------------------------------------------------------------------------|
D 3-----3--3--3--3--3--3--3--3--3--3--3--3--3--3--3-----------------------2-----------------------|
A 3-----3--3--3--3--3--3--3--3--3--3--3--3--3--3--3-----------------------2-----------------------|
E 1-----1--1--1--1--1--1--1--1--1--1--1--1--1--1--1-----------------------0-----------------------|
  o-----m--m--m--m--m--m--m--m--m--m--m--m--m--m--o-----------------------o-----------------------|

  2:18
E ------------------------------------------------------------------------------------------------|
B ------------------------------------------------------------------------------------------------|
G ------------------------------------------------------------------------------------------------|
D ------------------------------------------------------------------------------------------------|
A ------------------------------------------------------------------------------------------------|
E ------------------------------------------------------------------------------------------------|
  ------------------------------------------------------------------------------------------------|

  2:21
E ------------------------------------------------------------------------------------------------|
B ------------------------------------------------------------------------------------------------|
G ------------------------------------------------------------------------8-----8--8-----8--8-----|
D ------------------------------------------------------------------------8-----8--8-----8--8-----|
A ------------------------------------------------------------------------6-----6--6-----6--6-----|
E ------------------------------------------------------------------------------------------------|
  ------------------------------------------------------------------------o--o--o--o--o--o--o--o--|

  2:23
E ------------------------------------------------------------------------------------------------|
B ------------------------------------------------------------------------------------------------|
G 5-----5-----------5-----------------------------------------------------------------------------|
D 5-----5--8-----8--5-----5-----------------------------------------------2-----------------------|
A 3-----3--8-----8--3-----5-----5--5--5--5--5--5--5--5--5--5--5--5--5--5--2-----------------------|
E ---------6-----6--------3-----3--3--3--3--3--3--3--3--3--3--3--3--3--3--0-----------------------|
  o--o--o--o--o--o--o--o--o-----m--m--m--m--m--m--m--m--m--m--m--m--m--m--o-----------------------|

  2:26
E ------------------------------------------------|
B ------------------------------------------------|
G ------------------------------------------------|
D ------------------------------------------------|
A ------------------------------------------------|
E ------------------------------------------------|
  ------------------------------------------------|

==================================================================================

Guitar 2 Tabs
==================================================================================

  0:00
E ------------------------------------------------------------------------------------------------|
B ------------------------------------------------------------------------------------------------|
G 9-----------------------------------------------------------------------------------------------|
D x-----------------------------------------------------------------------------------------------|
A 7-----------------------------------------------------------------------------------------------|
E ------------------------------------------------------------------------------------------------|
  o-----------------------------------------------------------------------------------------------|

  0:02
E ------------------------------------------------------------------------------------------------|
B ------------------------------------------------------------------------------------------------|
G ------------------------------------------------------------------------------------------------|
D ------------------------------------------------------------------------------------------------|
A ------------------------------------------------------------------------------------------------|
E ------------------------------------------------------------------------------------------------|
  ------------------------------------------------------------------------------------------------|

  0:05
E ------------------------------------------------------------------------------------------------|
B ------------------------------------------------------------------------------------------------|
G ------------------------------------------------------------------------------------------------|
D ------------------------------------------------------------------------------------------------|
A ------------------------------------------------------------------------------------------------|
E ------------------------------------------------------------------------------------------------|
  ------------------------------------------------------------------------------------------------|

  0:08
E ------------------------------------------------------------------------------------------------|
B ------------------------------------------------------------------------------------------------|
G ------------------------------------------------------------------------------------------------|
D ------------------------------------------------------------------------------------------------|
A ------------------------------------------------------------------------------------------------|
E ------------------------------------------------------------------------------------------------|
  ------------------------------------------------------------------------------------------------|

  0:11
E ------------------------------------------------------------------------------------------------|
B ------------------------------------------------------------------------------------------------|
G 8-----8--8-----8--8-----5-----5-----------5-----------------------------------------------------|
D 8-----8--8-----8--8-----5-----5--8-----8--5-----5-----------------------------------------------|
A 6-----6--6-----6--6-----3-----3--8-----8--3-----5-----5--5--5--5--5--5--5--5--5--5--5--5--5--5--|
E ---------------------------------6-----6--------3-----3--3--3--3--3--3--3--3--3--3--3--3--3--3--|
  o--o--o--o--o--o--o--o--o--o--o--o--o--o--o--o--o-----m--m--m--m--m--m--m--m--m--m--m--m--m--m--|

  0:14
E ------------------------------------------------------------------------------------------------|
B ------------------------------------------------------------------------------------------------|
G ------------------------------------------------------------------------------------------------|
D 2-----2--2--2--2--2--2--2--2--2--2--2--2--2--2--3-----3--3--3--3--3--3--3--3--3--3--3--3--3--3--|
A 2-----2--2--2--2--2--2--2--2--2--2--2--2--2--2--3-----3--3--3--3--3--3--3--3--3--3--3--3--3--3--|
E 0-----0--0--0--0--0--0--0--0--0--0--0--0--0--0--1-----1--1--1--1--1--1--1--1--1--1--1--1--1--1--|
  o-----m--m--m--m--m--m--m--m--m--m--m--m--m--m--o-----m--m--m--m--m--m--m--m--m--m--m--m--m--m--|

  0:16
E ------------------------------------------------------------------------------------------------|
B ------------------------------------------------------------------------------------------------|
G 8-----8--8-----8--8-----5-----5-----------5-----------------------------------------------------|
D 8-----8--8-----8--8-----5-----5--8-----8--5-----5-----------------------------------------------|
A 6-----6--6-----6--6-----3-----3--8-----8--3-----5-----5--5--5--5--5--5--5--5--5--5--5--5--5--5--|
E ---------------------------------6-----6--------3-----3--3--3--3--3--3--3--3--3--3--3--3--3--3--|
  o--o--o--o--o--o--o--o--o--o--o--o--o--o--o--o--o-----m--m--m--m--m--m--m--m--m--m--m--m--m--m--|

  0:19
E ------------------------------------------------------------------------------------------------|
B ------------------------------------------------------------------------------------------------|
G ------------------------------------------------10----10----------10----12----12----------12----|
D 2-----2--2--2--2--2--2--2--2--2--2--2--2--2--2--x-----x-----------x-----x-----x-----------x-----|
A 2-----2--2--2--2--2--2--2--2--2--2--2--2--2--2--8-----8-----------8-----10----10----------10----|
E 0-----0--0--0--0--0--0--0--0--0--0--0--0--0--0--------------------------------------------------|
  o-----m--m--m--m--m--m--m--m--m--m--m--m--m--m--o-----o-----------o-----o-----o-----------o-----|

  0:22
E ------------------------------------------------------------------------------------------------|
B ------------------------------------------------------------------------------------------------|
G 8-----8--8-----8--8-----5-----5-----------5-----------------------------------------------------|
D 8-----8--8-----8--8-----5-----5--8-----8--5-----5-----------------------------------------------|
A 6-----6--6-----6--6-----3-----3--8-----8--3-----5-----5--5--5--5--5--5--5--5--5--5--5--5--5--5--|
E ---------------------------------6-----6--------3-----3--3--3--3--3--3--3--3--3--3--3--3--3--3--|
  o--o--o--o--o--o--o--o--o--o--o--o--o--o--o--o--o-----m--m--m--m--m--m--m--m--m--m--m--m--m--m--|

  0:25
E ------------------------------------------------------------------------------------------------|
B ------------------------------------------------------------------------------------------------|
G ------------------------------------------------12----12----------12----10----10----------10----|
D 2-----2--2--2--2--2--2--2--2--2--2--2--2--2--2--x-----x-----------x-----10----10----------10----|
A 2-----2--2--2--2--2--2--2--2--2--2--2--2--2--2--10----10----------10----8-----8-----------8-----|
E 0-----0--0--0--0--0--0--0--0--0--0--0--0--0--0--------------------------------------------------|
  o-----m--m--m--m--m--m--m--m--m--m--m--m--m--m--o-----o-----------o-----o-----o-----------o-----|

  0:28
E ------------------------------------------------------------------------------------------------|
B ------------------------------------------------------------------------------------------------|
G ------------------8-----------8-----------------------------------5-----------5-----------------|
D ------------8-----------------------------8-----------------5-----------------------------5-----|
A 6-----6-----------------------------------------3-----3-----------------------------------------|
E ------------------------------------------------------------------------------------------------|
  m-----m-----o-----o-----------o-----------o-----m-----m-----o-----o-----------o-----------o-----|

  0:31
E ------------------------------------------------------------------------------------------------|
B ------------------------------------------------------------------------------------------------|
G ------------------------------------------------------------------------------------------------|
D ------------------5-----------5-----------------------------------8-----------8-----------------|
A ------------5-----------------------------5-----------------8-----------------------------8-----|
E 3-----3-----------------------------------------6-----6-----------------------------------------|
  m-----m-----o-----o-----------o-----------o-----m-----m-----o-----o-----------o-----------o-----|

  0:33
E ------------------------------------------------------------------------------------------------|
B ------------------------------------------------------------------------------------------------|
G ------------------8-----------8-----------------------------------5-----------5-----------------|
D ------------8-----------------------------8-----------------5-----------------------------5-----|
A 6-----6-----------------------------------------3-----3-----------------------------------------|
E ------------------------------------------------------------------------------------------------|
  m-----m-----o-----o-----------o-----------o-----m-----m-----o-----o-----------o-----------o-----|

  0:36
E ------------------------------------------------------------------------------------------------|
B ------------------------------------------------------------------------------------------------|
G ------------------------------------------------------------------------------------------------|
D ------------------5-----------5-----------------------------------8-----------8-----------------|
A ------------5-----------------------------5-----------------8-----------------------------8-----|
E 3-----3-----------------------------------------6-----6-----------------------------------------|
  m-----m-----o-----o-----------o-----------o-----m-----m-----o-----o-----------o-----------o-----|

  0:39
E ------------------------------------------------------------------------------------------------|
B ------------------------------------------------------------------------------------------------|
G ------------------8-----------8-----------------------------------5-----------5-----------------|
D ------------8-----------------------------8-----------------5-----------------------------5-----|
A 6-----6-----------------------------------------3-----3-----------------------------------------|
E ------------------------------------------------------------------------------------------------|
  m-----m-----o-----o-----------o-----------o-----m-----m-----o-----o-----------o-----------o-----|

  0:42
E ------------------------------------------------------------------------------------------------|
B ------------------------------------------------------------------------------------------------|
G ------------------------------------------------------------------------------------------------|
D ------------------5-----------5-----------------------------------8-----------8-----------------|
A ------------5-----------------------------5-----------------8-----------------------------8-----|
E 3-----3-----------------------------------------6-----6-----------------------------------------|
  m-----m-----o-----o-----------o-----------o-----m-----m-----o-----o-----------o-----------o-----|

  0:45
E ------------------------------------------------------------------------------------------------|
B ------------------------------------------------------------------------------------------------|
G ------------------8-----------8-----------------------------------5-----------5-----------------|
D ------------8-----------------------------8-----------------5-----------------------------5-----|
A 6-----6-----------------------------------------3-----3-----------------------------------------|
E ------------------------------------------------------------------------------------------------|
  m-----m-----o-----o-----------o-----------o-----m-----m-----o-----o-----------o-----------o-----|

  0:47
E ------------------------------------------------------------------------------------------------|
B ------------------------------------------------------------------------------------------------|
G ------------------------------------------------------------------------------------------------|
D ------------------5-----------5-----------------------------------8-----------8-----------------|
A ------------5-----------------------------5-----------------8-----------------------------8-----|
E 3-----3-----------------------------------------6-----6-----------------------------------------|
  m-----m-----o-----o-----------o-----------o-----m-----m-----o-----o-----------o-----------o-----|

  0:50
E ------------------------------------------------------------------------------------------------|
B ------------------------------------------------------------------------------------------------|
G ------------------8-----------8-----------------------------------5-----------5-----------------|
D ------------8-----------------------------8-----------------5-----------------------------5-----|
A 6-----6-----------------------------------------3-----3-----------------------------------------|
E ------------------------------------------------------------------------------------------------|
  m-----m-----o-----o-----------o-----------o-----m-----m-----o-----o-----------o-----------o-----|

  0:53
E ------------------------------------------------------------------------------------------------|
B ------------------------------------------------------------------------------------------------|
G ------------------------------------------------------------------------------------------------|
D ------------------5-----------5-----------------------------------8-----------8-----------------|
A ------------5-----------------------------5-----------------8-----------------------------8-----|
E 3-----3-----------------------------------------6-----6-----------------------------------------|
  m-----m-----o-----o-----------o-----------o-----m-----m-----o-----o-----------o-----------o-----|

  0:56
E ------------------------------------------------------------------------------------------------|
B ------------------------------------------------------------------------------------------------|
G ------------------8-----------8-----------------------------------5-----------5-----------------|
D ------------8-----------------------------8-----------------5-----------------------------5-----|
A 6-----6-----------------------------------------3-----3-----------------------------------------|
E ------------------------------------------------------------------------------------------------|
  m-----m-----o-----o-----------o-----------o-----m-----m-----o-----o-----------o-----------o-----|

  0:59
E ------------------------------------------------------------------------------------------------|
B ------------------------------------------------------------------------------------------------|
G ------------------------------------------------------------------------------------------------|
D ------------------5-----------5-----------------------------------8-----------8-----------------|
A ------------5-----------------------------5-----------------8-----------------------------8-----|
E 3-----3-----------------------------------------6-----6-----------------------------------------|
  m-----m-----o-----o-----------o-----------o-----m-----m-----o-----o-----------o-----------o-----|

  1:02
E ------------------------------------------------------------------------------------------------|
B ------------------------------------------------------------------------------------------------|
G ------------------------------------------------------------------------------------------------|
D ------------------------------------------------------------------------------------------------|
A ------------------------------------------------------------------------------------------------|
E ------------------------------------------------------------------------------------------------|
  ------------------------------------------------------------------------------------------------|

  1:04
E ------------------------------------------------------------------------------------------------|
B ------------------------------------------------------------------------------------------------|
G ------------------------------------------------------------------------------------------------|
D ------------------------------------------------------------------------------------------------|
A ------------------------------------------------------------------------------------------------|
E ------------------------------------------------------------------------------------------------|
  ------------------------------------------------------------------------------------------------|

  1:07
E ------------------------------------------------------------------------------------------------|
B ------------------------------------------------------------------------------------------------|
G ------------------8-----------8-----------------------------------5-----------5-----------------|
D ------------8-----------------------------8-----------------5-----------------------------5-----|
A 6-----6-----------------------------------------3-----3-----------------------------------------|
E ------------------------------------------------------------------------------------------------|
  m-----m-----o-----o-----------o-----------o-----m-----m-----o-----o-----------o-----------o-----|

  1:10
E ------------------------------------------------------------------------------------------------|
B ------------------------------------------------------------------------------------------------|
G ------------------------------------------------------------------------------------------------|
D ------------------5-----------5-----------------------------------8-----------8-----------------|
A ------------5-----------------------------5-----------------8-----------------------------8-----|
E 3-----3-----------------------------------------6-----6-----------------------------------------|
  m-----m-----o-----o-----------o-----------o-----m-----m-----o-----o-----------o-----------o-----|

  1:13
E ------------------------------------------------------------------------------------------------|
B ------------------------------------------------------------------------------------------------|
G ------------------------------------------------------------------------------------------------|
D ------------------------------------------------------------------------------------------------|
A ------------------------------------------------------------------------------------------------|
E ------------------------------------------------------------------------------------------------|
  ------------------------------------------------------------------------------------------------|

  1:16
E ------------------------------------------------------------------------------------------------|
B ------------------------------------------------------------------------------------------------|
G ------------------------------------------------------------------------------------------------|
D ------------------------------------------------------------------------------------------------|
A ------------------------------------------------------------------------------------------------|
E ------------------------------------------------------------------------------------------------|
  ------------------------------------------------------------------------------------------------|

  1:19
E ------------------------------------------------------------------------------------------------|
B ------------------------------------------------------------------------------------------------|
G ------8-----------8-----------8-----------8-----------5-----------5-----------5-----------5-----|
D ------8-----------8-----------8-----------8-----------5-----------5-----------5-----------5-----|
A ------6-----------6-----------6-----------6-----------3-----------3-----------3-----------3-----|
E ------------------------------------------------------------------------------------------------|
  ---o--o--------o--o--------o--o--------o--o--------o--o--------o--o--------o--o--------o--o-----|

  1:21
E ------------------------------------------------------------------------------------------------|
B ------------------------------------------------------------------------------------------------|
G ------1-----------1-----------1-----------1-----------1-----------1-----------1-----------1-----|
D ------5-----------5-----------5-----------5-----------8-----------8-----------8-----------8-----|
A ------5-----------5-----------5-----------5-----------8-----------8-----------8-----------8-----|
E ------3-----------3-----------3-----------3-----------6-----------6-----------6-----------6-----|
  ---o--o--------o--o--------o--o--------o--o--------o--o--------o--o--------o--o--------o--o-----|

  1:24
E ------------------------------------------------------------------------------------------------|
B ------------------------------------------------------------------------------------------------|
G ------8-----------8-----------8-----------8-----------5-----------5-----------5-----------5-----|
D ------8-----------8-----------8-----------8-----------5-----------5-----------5-----------5-----|
A ------6-----------6-----------6-----------6-----------3-----------3-----------3-----------3-----|
E ------------------------------------------------------------------------------------------------|
  ---o--o--------o--o--------o--o--------o--o--------o--o--------o--o--------o--o--------o--o-----|

  1:27
E ------------------------------------------------------------------------------------------------|
B ------------------------------------------------------------------------------------------------|
G ------1-----------1-----------1-----------1-----------1-----------1-----------1-----------1-----|
D ------5-----------5-----------5-----------5-----------8-----------8-----------8-----------8-----|
A ------5-----------5-----------5-----------5-----------8-----------8-----------8-----------8-----|
E ------3-----------3-----------3-----------3-----------6-----------6-----------6-----------6-----|
  ---o--o--------o--o--------o--o--------o--o--------o--o--------o--o--------o--o--------o--o-----|

  1:30
E ------------------------------------------------------------------------------------------------|
B ------------------------------------------------------------------------------------------------|
G ------1-----------1-----------1-----------1-----8-----8--8-----8--8-----5-----5-----------5-----|
D ------8-----------8-----------8-----------8-----8-----8--8-----8--8-----5-----5--8-----8--5-----|
A ------8-----------8-----------8-----------8-----6-----6--6-----6--6-----3-----3--8-----8--3-----|
E ------6-----------6-----------6-----------6--------------------------------------6-----6--------|
  ---o--o--------o--o--------o--o--------o--o-----o--o--o--o--o--o--o--o--o--o--o--o--o--o--o--o--|

  1:33
E ------------------------------------------------------------------------------------------------|
B ------------------------------------------------------------------------------------------------|
G ------------------------------------------------------------------------------------------------|
D 5-----------------------------------------------2-----2--2--2--2--2--2--2--2--2--2--2--2--2--2--|
A 5-----5--5--5--5--5--5--5--5--5--5--5--5--5--5--2-----2--2--2--2--2--2--2--2--2--2--2--2--2--2--|
E 3-----3--3--3--3--3--3--3--3--3--3--3--3--3--3--0-----0--0--0--0--0--0--0--0--0--0--0--0--0--0--|
  o-----m--m--m--m--m--m--m--m--m--m--m--m--m--m--o-----m--m--m--m--m--m--m--m--m--m--m--m--m--m--|

  1:35
E ------------------------------------------------------------------------------------------------|
B ------------------------------------------------------------------------------------------------|
G ------------------------------------------------8-----8--8-----8--8-----5-----5-----------5-----|
D 3-----3--3--3--3--3--3--3--3--3--3--3--3--3--3--8-----8--8-----8--8-----5-----5--8-----8--5-----|
A 3-----3--3--3--3--3--3--3--3--3--3--3--3--3--3--6-----6--6-----6--6-----3-----3--8-----8--3-----|
E 1-----1--1--1--1--1--1--1--1--1--1--1--1--1--1-----------------------------------6-----6--------|
  o-----m--m--m--m--m--m--m--m--m--m--m--m--m--m--o--o--o--o--o--o--o--o--o--o--o--o--o--o--o--o--|

  1:38
E ------------------------------------------------------------------------------------------------|
B ------------------------------------------------------------------------------------------------|
G ------------------------------------------------------------------------------------------------|
D 5-----------------------------------------------2-----2--2--2--2--2--2--2--2--2--2--2--2--2--2--|
A 5-----5--5--5--5--5--5--5--5--5--5--5--5--5--5--2-----2--2--2--2--2--2--2--2--2--2--2--2--2--2--|
E 3-----3--3--3--3--3--3--3--3--3--3--3--3--3--3--0-----0--0--0--0--0--0--0--0--0--0--0--0--0--0--|
  o-----m--m--m--m--m--m--m--m--m--m--m--m--m--m--o-----m--m--m--m--m--m--m--m--m--m--m--m--m--m--|

  1:41
E ------------------------------------------------------------------------------------------------|
B ------------------------------------------------------------------------------------------------|
G 10----10----------10----13----13----------13----8-----8--8-----8--8-----5-----5-----------5-----|
D x-----x-----------x-----x-----x-----------x-----8-----8--8-----8--8-----5-----5--8-----8--5-----|
A 8-----8-----------8-----11----11----------11----6-----6--6-----6--6-----3-----3--8-----8--3-----|
E ---------------------------------------------------------------------------------6-----6--------|
  o-----o-----------o-----o-----o-----------o-----o--o--o--o--o--o--o--o--o--o--o--o--o--o--o--o--|

  1:44
E ------------------------------------------------------------------------------------------------|
B ------------------------------------------------------------------------------------------------|
G ------------------------------------------------------------------------------------------------|
D 5-----------------------------------------------2-----2--2--2--2--2--2--2--2--2--2--2--2--2--2--|
A 5-----5--5--5--5--5--5--5--5--5--5--5--5--5--5--2-----2--2--2--2--2--2--2--2--2--2--2--2--2--2--|
E 3-----3--3--3--3--3--3--3--3--3--3--3--3--3--3--0-----0--0--0--0--0--0--0--0--0--0--0--0--0--0--|
  o-----m--m--m--m--m--m--m--m--m--m--m--m--m--m--o-----m--m--m--m--m--m--m--m--m--m--m--m--m--m--|

  1:47
E ------------------------------------------------------------------------------------------------|
B ------------------------------------------------------------------------------------------------|
G 12----12----------12----10----10----------10----------------------8-----------8-----------------|
D x-----x-----------x-----x-----x-----------x-----------------8-----------------------------8-----|
A 10----10----------10----8-----8-----------8-----6-----6-----------------------------------------|
E ------------------------------------------------------------------------------------------------|
  o-----o-----------o-----o-----o-----------o-----m-----m-----o-----o-----------o-----------o-----|

  1:50
E ------------------------------------------------------------------------------------------------|
B ------------------------------------------------------------------------------------------------|
G ------------------5-----------5-----------------------------------------------------------------|
D ------------5-----------------------------5-----------------------5-----------5-----------------|
A 3-----3-----------------------------------------------------5-----------------------------5-----|
E ------------------------------------------------3-----3-----------------------------------------|
  m-----m-----o-----o-----------o-----------o-----m-----m-----o-----o-----------o-----------o-----|

  1:52
E ------------------------------------------------------------------------------------------------|
B ------------------------------------------------------------------------------------------------|
G ------------------------------------------------------------------8-----------8-----------------|
D ------------------8-----------8-----------------------------8-----------------------------8-----|
A ------------8-----------------------------8-----6-----6-----------------------------------------|
E 6-----6-----------------------------------------------------------------------------------------|
  m-----m-----o-----o-----------o-----------o-----m-----m-----o-----o-----------o-----------o-----|

  1:55
E ------------------------------------------------------------------------------------------------|
B ------------------------------------------------------------------------------------------------|
G ------------------5-----------5-----------------------------------------------------------------|
D ------------5-----------------------------5-----------------------5-----------5-----------------|
A 3-----3-----------------------------------------------------5-----------------------------5-----|
E ------------------------------------------------3-----3-----------------------------------------|
  m-----m-----o-----o-----------o-----------o-----m-----m-----o-----o-----------o-----------o-----|

  1:58
E ------------------------------------------------------------------------------------------------|
B ------------------------------------------------------------------------------------------------|
G ------------------------------------------------------------------8-----------8-----------------|
D ------------------8-----------8-----------------------------8-----------------------------8-----|
A ------------8-----------------------------8-----6-----6-----------------------------------------|
E 6-----6-----------------------------------------------------------------------------------------|
  m-----m-----o-----o-----------o-----------o-----m-----m-----o-----o-----------o-----------o-----|

  2:01
E ------------------------------------------------------------------------------------------------|
B ------------------------------------------------------------------------------------------------|
G ------------------5-----------5-----------------------------------------------------------------|
D ------------5-----------------------------5-----------------------5-----------5-----------------|
A 3-----3-----------------------------------------------------5-----------------------------5-----|
E ------------------------------------------------3-----3-----------------------------------------|
  m-----m-----o-----o-----------o-----------o-----m-----m-----o-----o-----------o-----------o-----|

  2:04
E ------------------------------------------------------------------------------------------------|
B ------------------------------------------------------------------------------------------------|
G ------------------------------------------------------------------8-----------8-----------------|
D ------------------8-----------8-----------------------------8-----------------------------8-----|
A ------------8-----------------------------8-----6-----6-----------------------------------------|
E 6-----6-----------------------------------------------------------------------------------------|
  m-----m-----o-----o-----------o-----------o-----m-----m-----o-----o-----------o-----------o-----|

  2:06
E ------------------------------------------------------------------------------------------------|
B ------------------------------------------------------------------------------------------------|
G ------------------5-----------5-----------------------------------------------------------------|
D ------------5-----------------------------5-----------------------5-----------5-----------------|
A 3-----3-----------------------------------------------------5-----------------------------5-----|
E ------------------------------------------------3-----3-----------------------------------------|
  m-----m-----o-----o-----------o-----------o-----m-----m-----o-----o-----------o-----------o-----|

  2:09
E ------------------------------------------------------------------------------------------------|
B ------------------------------------------------------------------------------------------------|
G ------------------------------------------------8-----8--8-----8--8-----5-----5-----------5-----|
D ------------------8-----------8-----------------8-----8--8-----8--8-----5-----5--8-----8--5-----|
A ------------8-----------------------------8-----6-----6--6-----6--6-----3-----3--8-----8--3-----|
E 6-----6--------------------------------------------------------------------------6-----6--------|
  m-----m-----o-----o-----------o-----------o-----o--o--o--o--o--o--o--o--o--o--o--o--o--o--o--o--|

  2:12
E ------------------------------------------------------------------------------------------------|
B ------------------------------------------------------------------------------------------------|
G ------------------------------------------------------------------------------------------------|
D 5-----------------------------------------------2-----2--2--2--2--2--2--2--2--2--2--2--2--2--2--|
A 5-----5--5--5--5--5--5--5--5--5--5--5--5--5--5--2-----2--2--2--2--2--2--2--2--2--2--2--2--2--2--|
E 3-----3--3--3--3--3--3--3--3--3--3--3--3--3--3--0-----0--0--0--0--0--0--0--0--0--0--0--0--0--0--|
  o-----m--m--m--m--m--m--m--m--m--m--m--m--m--m--o-----m--m--m--m--m--m--m--m--m--m--m--m--m--m--|

  2:15
E ------------------------------------------------------------------------------------------------|
B ------------------------------------------------------------------------------------------------|
G ------------------------------------------------------------------------------------------------|
D 3-----3--3--3--3--3--3--3--3--3--3--3--3--3--3--3-----------------------2-----------------------|
A 3-----3--3--3--3--3--3--3--3--3--3--3--3--3--3--3-----------------------2-----------------------|
E 1-----1--1--1--1--1--1--1--1--1--1--1--1--1--1--1-----------------------0-----------------------|
  o-----m--m--m--m--m--m--m--m--m--m--m--m--m--m--o-----------------------o-----------------------|

  2:18
E ------------------------------------------------------------------------------------------------|
B ------------------------------------------------------------------------------------------------|
G ------------------------------------------------------------------------------------------------|
D ------------------------------------------------------------------------------------------------|
A ------------------------------------------------------------------------------------------------|
E ------------------------------------------------------------------------------------------------|
  ------------------------------------------------------------------------------------------------|

  2:21
E ------------------------------------------------------------------------------------------------|
B ------------------------------------------------------------------------------------------------|
G ------------------------------------------------------------------------------------------------|
D ------------------------------------------------------------------------------------------------|
A ------------------------------------------------------------------------------------------------|
E ------------------------------------------------------------------------------------------------|
  ------------------------------------------------------------------------------------------------|

  2:23
E ------------------------------------------------------------------------------------------------|
B ------------------------------------------------------------------------------------------------|
G ------------------------------------------------------------------------------------------------|
D ------------------------------------------------------------------------2-----------------------|
A ------------------------------------------------------------------------2-----------------------|
E ------------------------------------------------------------------------0-----------------------|
  ------------------------------------------------------------------------o-----------------------|

  2:26
E ------------------------------------------------|
B ------------------------------------------------|
G ------------------------------------------------|
D ------------------------------------------------|
A ------------------------------------------------|
E ------------------------------------------------|
  ------------------------------------------------|
Tap to rate this tab
# A B C D E F G H I J K L M N O P Q R S T U V W X Y Z