Song name
# A B C D E F G H I J K L M N O P Q R S T U V W X Y Z

Misc Unsigned Bands - Mercury On High - Leaving tab

Capo 4
[Intro]
e|---------0-----------0-----------0-----------0------|
B|-------1---1-------1---1-------1---1-------1---1----|
G|-----2-------2---2-------2---2-------2---2-------2--|
D|---3-----------3-----------3-----------3------------|
A|----------------------------------------------------|
E|----------------------------------------------------|

e|---------0-----------0-----------0-----------0------|
B|-------1---1-------1---1-------1---1-------1---1----|
G|-----2-------2---2-------2---2-------2---2-------2--|
D|---0-----------0-----------0-----------0------------|
A|----------------------------------------------------|
E|----------------------------------------------------|

e|---------0-----------0-----------0-----------0------|
B|-------0---0-------0---0-------0---0-------0---0----|
G|-----2-------2---2-------2---2-------2---2-------2--|
D|---3-----------3-----------3-----------3-----------3|
A|----------------------------------------------------|
E|----------------------------------------------------|



[verse 1] Am              Em               Dm             C
            Feeling overwhelmed       My blood shot eyes will

Am              Em               Dm             C 
Scream at your broken ears     and make them bleed 



[Chorus]G              Dm       Em                A              Dm
           Genius only comes   along in storms of fabled foreign tongues

G              Dm       Em                A              Dm                
   Genius only comes   along in storms of fabled foreign tongues


[Pick]
e|---------0-----------0-----------0-----------0------|
B|-------1---1-------1---1-------1---1-------1---1----|
G|-----2-------2---2-------2---2-------2---2-------2--|
D|---3-----------3-----------0-----------0------------|
A|----------------------------------------------------|
E|----------------------------------------------------|

e|---------0-----------0-----------0--------0---------|
B|-------0---0-------0---0-------0---0------1---------|
G|-----2-------2---2-------2---2-------2----2---------|
D|---3-----------3-----------3--------------3---------|
A|----------------------------------------------------|
E|----------------------------------------------------|



[verse 2] Am                Em               Dm             C
             And if I had a choice       I'd run from all the bs of this

Am                Em               Dm                     C 
    Having hallucinations        remind me of when we were close



[Chorus]G              Dm       Em                A              Dm                
           Genius only comes   along in storms of fabled foreign tongues

G              Dm       Em                A              Dm                
   Genius only comes   along in storms of fabled foreign tongues
 


Em               Dm                     A               Am             C



[Outro]
e|---------0-----------0-----------0-----------0------|
B|-------1---1-------1---1-------1---1-------1---1----|
G|-----2-------2---2-------2---2-------2---2-------2--|
D|---3-----------3-----------0-----------0------------|
A|----------------------------------------------------|
E|----------------------------------------------------|

e|---------0-----------0-----------0------------------|
B|-------0---0-------0---0-------0---0----------------|
G|-----2-------2---2-------2---2-------2--------------|
D|---3-----------3-----------3-----------3------------|
A|-----------------------------------------0----------|
Tap to rate this tab
# A B C D E F G H I J K L M N O P Q R S T U V W X Y Z