Song name
# A B C D E F G H I J K L M N O P Q R S T U V W X Y Z

Misc Unsigned Bands - Hindi Zahra - Stand Up tab

Hindi Zahra
Stand Up - Acoustic Version 

http://www.hindi-zahra.com/

STANDARD TUNING


e|-----5-----5-----5-----5------8------8------8------8-------|
B|--x--5--x--5--x--5--x--5---x--8---x--8---x--8---x--8-------|
G|--x--5--x--5--x--5--x--5---x--9---x--9---x--9---x--9-------|
D|--x--7--x--7--x--7--x--7---x--10--x--10--x--10--x--10------|
A|--x--7--x--7--x--7--x--7---x--10--x--10--x--10--x--10------|
E|-----5-----5-----5-----5------8------8------8------8-------|


e|-----7-----7-----7-----7-----7-----7-----------------------|
B|--x--8--x--8--x--8--x--8--x--8--x--8-----------------------|
G|--x--9--x--9--x--9--x--9--x--9--x--9-----------------------|
D|--x--9--x--9--x--9--x--9--x--9--x--9-----------------------|
A|--x--7--x--7--x--7--x--7--x--7--x--7-----5--7-----5--------|
E|-----7-----7-----7-----7-----7-----7-----------8-----5-----|

Play the chords using upstrokes.

As an alternative to the above riff you can play the following on the downstroke.

e|----8---7------|
B|----8---7------|
G|----8---7------|
D|---------------|
A|---------------|
E|---------------|

Hope you enjoy it.

Tabbed by Ryan.C

Visit - www.youtube.com/meatstring
Tap to rate this tab
# A B C D E F G H I J K L M N O P Q R S T U V W X Y Z