Song name
# A B C D E F G H I J K L M N O P Q R S T U V W X Y Z

Misc Unsigned Bands - Kilpi - Sielut Iskee Tulta tab

-------------------------------------------------------------------------------
			     Sielut Iskee Tulta - Kilpi
-------------------------------------------------------------------------------
Tabbed by:Tume
Email:tume95@windowslive.com

Tuning: Standard

This tab doesnt include those acoustic riffs!

e|---------------| 2x
B|---------------|
G|----------2----|
D|-44-4-4-2-0-2--|
A|-22-2-2-0---0--|
E|---------------|

e|-----------------| 2x
B|-----------------|
G|-7-7--7-5-3-5-7--|
D|-5-5--5-5-5-5-5--|
A|-----------------|
E|-----------------|

e|---------------------| 2x
B|---------------------|
G|-77/5-77/5-5-3-1-3-5-|
D|-55/5-55/5-5-3-1-3-3-|
A|---------------------|
E|---------------------|




************************************

| /   slide up
| \   slide down
| h   hammer-on
| p   pull-off
| ~   vibrato
| +   harmonic
| x   Mute note
| b   Bend
| pb  Pre-bend
| br  Bend release
| pbr Pre-bend release
| brb Bend release bend

************************************
Tap to rate this tab
# A B C D E F G H I J K L M N O P Q R S T U V W X Y Z