Song name
# A B C D E F G H I J K L M N O P Q R S T U V W X Y Z

Misc Unsigned Bands - The City Calls - Its Your Fault tab

This is It's your fault by the city calls
Amazing song =]

 Intro
    
E||-------|---------------------------------------------------|
B||-------|---------------------------------------------------| this part 
G||-------|-------------------77777777------------------------| played
D||9---5~-|-99999999-55555555-77777777-77777777---------------| up until
A||9---5~-|-99999999-55555555-55555555-77777777---------------| the verse
D||9---5~-|-99999999-55555555----------77777777---------------|

  
     Verse. All palm muted
E||-----------------------------------------------------------|
B||-----------------------------------------------------------|
G||-----------------------------------------------------------| played 4
D||---7-7-----------------------------------------------------|  times
A||---5-5---5-5---2-2---77-55---------------------------------|
D||---------5-5---2-2---77-55---------------------------------|

random bit|
before it |  chorus.
E||-------|---------------------------------------------------|
B||-------|---------------------------------------------------| played 4 
G||-------|-------------------77777777------------------------| times
D||9---5~-|-99999999-55555555-77777777-77777777---------------| 
A||9---5~-|-99999999-55555555-55555555-77777777---------------| 
D||9---5~-|-99999999-55555555----------77777777---------------|


   2nd verse first part. All palm muted
E||-----------------------------------------------------------|
B||-----------------------------------------------------------|
G||-----------------------------------------------------------| played 2
D||---7-7-----------------------------------------------------|  times
A||---5-5---5-5---2-2---77-55---------------------------------|
D||---------5-5---2-2---77-55---------------------------------|

    2nd verse second part. All palm muted
E||---------------------------------------------------------|
B||---------------------------------------------------------|
G||---------------------------------------------------------|
D||77777777-------------------------------------------------|
A||55555555-55555555-22222222---7777-5555-------------------|
D||---------55555555-22222222---7777-5555-------------------|
     
    Chorus
E||---------------------------------------------------------|
B||---------------------------------------------------------|
G||-------------------77777777------------------------------|
D||-99999999-55555555-77777777-77777777---------------------| played 4 
A||-99999999-55555555-55555555-77777777---------------------|  times
D||-99999999-55555555----------77777777---------------------|

     Bridge
E||---------------------------------------------------------|
B||---------------------------------------------------------|
G||---------------------------------------------------------|
D||--5~--555-555-777-777-999-999--12-12-12------------------|
A||--5~--555-555-777-777-999-999--12-12-12------------------|
D||--5~--555-555-777-777-999-999--12-12-12------------------|

   Outro 
E||---------------------------------------------------------|
B||---------------------------------------------------------|
G||-------------------77777777------------------------------|
D||-99999999-55555555-77777777-77777777---------------------| played 
A||-99999999-55555555-55555555-77777777---------------------|  till the
D||-99999999-55555555----------77777777---------------------|  end

   That is the tab well the rhythm parts anyway
   enjoy :) rate 
   
Tap to rate this tab
# A B C D E F G H I J K L M N O P Q R S T U V W X Y Z