Song name
# A B C D E F G H I J K L M N O P Q R S T U V W X Y Z

Misc Unsigned Bands - Working Progress - Where Is Up tab

Standard Tuning E A D G B E

Working Progress - 100% Correct Tab ;).

|-------------------------------------------|
|-------------------------------------------|
|-------------------------------------------|
|----0---0---0---0----0---0---0---0  Intro--| X2
|--5---7---9---7---10---9---9---9-----------|
|-------------------------------------------|

|-------------------------------------------------|
|-------------------------------------------------|
|-------------------------------------------------|
|----0---0---0---0---0---0---0---0---0---0 Verse--| X4
|--2---4---5---5---5---4---10--10--10--9----------|
|-------------------------------------------------|

|----------------------------------------------------|
|----------------------------------------------------|
|-0-----0-0-0-0-0-0-0-0-0-0--0--0--0--0--0--0--0-----| Pre Chorus
|-5-x16-5-5-5-7-7-7-9-9-9-10-10-10-10-10-10-10-10----|x4
|----------------------------------------------------|
|----------------------------------------------------|

|---------------------------------------------------------------------|
|---------------------------------------------------------------------|
|--9-9-9-9-9-9-9-9--7-7-7-7-7-7-7-7--6-6-6-6-6-6-6-6--7-7-7-7-7-7-7-7-|
|--9-9-9-9-9-9-9-9--7-7-7-7-7-7-7-7--6-6-6-6-6-6-6-6--7-7-7-7-7-7-7-7-|
|--7-7-7-7-7-7-7-7--5-5-5-5-5-5-5-5--4-4-4-4-4-4-4-4--5-5-5-5-5-5-5-5-|
|---------------------------------------------------------------------|
                            Rhythm Chorus X4

|----------------------------------------------|
|--7-------------------------------------------|
|--9b11---9-7---7-9-9/11-11-11-11 Lead Chorus--| X2
|-------------9--------------------------------|
|----------------------------------------------|
|----------------------------------------------|


|----------------------------------------------------------------------|
|----------------------------------------------------------------------|
|--4-4-4-4--6-6-6-6--7-7-7-7-7-7-7-7-6-6-6-6--7-7-7-7--9-9-9-9-9-9-9-9-|
|--4-4-4-4--6-6-6-6--7-7-7-7-7-7-7-7-6-6-6-6--7-7-7-7--9-9-9-9-9-9-9-9-|
|--2-2-2-2--4-4-4-4--5-5-5-5-5-5-5-5-4-4-4-4--5-5-5-5--7-7-7-7-7-7-7-7-|
|----------------------------------------------------------------------|
                             2nd Verse X4

|--3--5--7----7-7-7-|
|--3--5--7----7-7-7-|
|--5--7--9----9-9-9-| Outro
|--5--7--9----9-9-9-|
|--3--5--7----7-7-7-|
|-------------------|

INTRO
1ST VERSE
PRE CHORUS
CHORUS
2ND VERSE
CHORUS X2
OUTRO
Tap to rate this tab
# A B C D E F G H I J K L M N O P Q R S T U V W X Y Z