Song name
# A B C D E F G H I J K L M N O P Q R S T U V W X Y Z

Misc Unsigned Bands - Lost In Time - Lost In Time tab

WOW! I can't beleive nobody's tabbed this yet - it's really easy and awesome.
My favourite song by a long shot, here it is.

e|-3-3-3-3-3-3-3-3/5-5-5-5-5-5-5-5\1-1-1-1-1-1-1-1/3-3-3-3-3-3-3-3-----------|
B|-3-------------------------------------------------------------------------|
G|-0-------------------------------------------------------------------------|
D|-0-------------------------------------------------------------------------|
A|-2-------------------------------------------------------------------------|
E|-3-------------------------------------------------------------------------|

e|-3-3-3-3--------------3--------------------------------------------------|
B|-3-3-3-3--------------3--------------------------------------------------|
G|-0-0-0-0---AWESOME----0--------------------------------------------------|
D|-0-0-0-0----DRUM------0--------------------------------------------------|
A|-2-2-2-2-----FILL-----2--------------------------------------------------|
E|-3-3-3-3--------------3--------------------------------------------------|

Riff 1
e|-------------------------------------------------------------------------|
B|-------------------------------------------------------------------------|
G|-------------------------------------------------------------------------|
D|-12--12-12-12--7--7-7-8-5--5-5-7-8--8-8-10-------------------------------|
A|-12--12-12-12--7--7-7-8-5--5-5-7-8--8-8-10-------------------------------|
E|-10--10-10-10--5--5-5-6-3--3-3-5-6--6-6-8--------------------------------|

Repeat many times.

Riff 2

e|-------------------------------------------------------------------------|
B|-------------------------------------------------------------------------|
G|-------------------------------------------------------------------------|
D|-12----7----8----5----7----8----10---------------------------------------|
A|-12-X8 7-X6-8-X2-5-X6-7-X2-8-X6-10-X2------------------------------------|
E|-10----5----6----3----5----6----8----------------------------------------|

repeat, then play riff 2 palm muted.


Then start all over again.


ROCK ON!
Tap to rate this tab
# A B C D E F G H I J K L M N O P Q R S T U V W X Y Z