Song name
# A B C D E F G H I J K L M N O P Q R S T U V W X Y Z

Misc Unsigned Bands - The Super Orchestra - Lay Me Down tab

this is not perfect but i think it sound pretty damb close it is in standard tuning.

intro X4
   C
E]-----------------]
B]-------1-----1---]
G]---------0-----0-]
D]---2-------------]
A]-3---3-----3-----]
E]-----------------]

verse, 1rst half

   C       part1 X3  F     part2 X1
E]-----------------]-----0-----0---]
B]-------1-----1---]-----1-----1---]
G]---------0-----0-]---0---0-------]
D]---2-------------]-3-------3---3-]
A]-3---3-----3-----]---------------]
E]-----------------]---------------]

intro X2

verse, 2nd half (1rst half again)

intro X2

chorus

E]-----------------]-----------------]-----------------]
B]-------1-----1---]-------1-----1---]-------1-----1---]
G]---------0-----0-]---------0-----0-]---------0-----0-]
D]---2-------------]---0-------------]---2-------------]
A]-0---0-----0-----]-2---2-----2-----]-3---3-----3-----]
E]-----------------]-----------------]-----------------]

this is as far as i have got on it any suggestions please comment.
Tap to rate this tab
 
# A B C D E F G H I J K L M N O P Q R S T U V W X Y Z