Song name
# A B C D E F G H I J K L M N O P Q R S T U V W X Y Z

Misc Unsigned Bands - Juilan Smith - 100k Subs Song tab

e|----------------|
B|----------------|
G|----------------|
D|--0-0-2-4-0-4-2-|
A|----------------|
D|----------------|

e|----------------|
B|----------------|
G|----------------|
D|--0-0-2-4-0-----|
A|--------------4-|
D|----------------|


e|--------------------------------|
B|--------------------------------|
G|--------------------------------|
D|--0-0-2-4-5-4-2-0-------------0-|
A|------------------4-0-2-4-5-0---|
D|--------------------------------|

e|----------------|
B|----------------|
G|----------------|
D|----------------|
A|--0-0-2-4-0-4-2-|
D|--0-0-2-4-0-4-2-|


e|----------------|
B|----------------|
G|----------------|
D|----------------|
A|--0-0-2-4-0---4-|
D|--0-0-2-4-0-----|


e|------------------------------------------------|
B|------------------------------------------------|
G|------------------------------------------------|
D|----------------------------------------------0-|
A|--0-0-2-4-5-4-2-0-4-0-2-4-4-0-2-4-4-0-2-4-5---0-|
D|--0-0-2-4-5-4-2-0-----------------------------0-|

Tap to rate this tab
# A B C D E F G H I J K L M N O P Q R S T U V W X Y Z