Song name
# A B C D E F G H I J K L M N O P Q R S T U V W X Y Z

Misc Unsigned Bands - The Shower Scene - Notice Me chords

Intro & Verses:

|--10-10-10-10-|
|--8--8--8--8--|
|--------------|
|--------------|
|--10-9--------|
|--------8--8--|

Choruses:

|--10-10-15----|
|--8--8-----15-|
|--------------|
|--------------|
|--7-----------|
|--0--8--15-14-|

Bridge & Outro:

|--10-10-10-10-|
|--8--8--8--8--|
|--------------|
|--------------|
|--------7-----|
|--8--10-0--10-|
Tap to rate this tab
 
# A B C D E F G H I J K L M N O P Q R S T U V W X Y Z