Song name
# A B C D E F G H I J K L M N O P Q R S T U V W X Y Z

Misc Unsigned Bands - Ghost Town - Blue Horizon tab

-------------------------------------------------------------------------------
			     Blue Horizon - Ghost Town
-------------------------------------------------------------------------------
Tabbed by: hobbitstyle
Email: Zekewhiting@yahoo.com

Tuning: eBGDAE (Standard)

e|0----x------------------x-----0---0---0----------------------------0-------|
B|0----x------------------x-----0---0---0---------------------------0-0------|
G|1----x------------------x-----1---1---1--------------------------1---1-----|
D|2----x----2--2--2--2----x-----2---2---2----x-2-x-2-x-2-x-2------2-----2----|
A|2----x----2--2--2--2----x-----2---2---2----x-2-x-2-x-2-x-2-----2-------2---|
E|0----x----0--0--0--0----x----0---0---0-----x-0-x-0-x-0-x-0----0---------0--|

e|------------------------0--------------------0-----0--0--------------------|
B|---------------------2--2--2-x-2-x-2-x-------------------2/3---------------|
G|------2--------2--2--2--2--2-x-2-x-2-x-------------------------------------|
D|2--2--2--2--2--2--2--2--2--2-x-2-x-2-x-------------------2/3---------------|
A|0--0-----0--0-----0-----0-----------------0-----0-----0--------------------|
E|----------------------------------------------------------------0-0--------|

e|2p0--2h3--2-------------2--2----2--2-------2---------------------x--2p0----|
B|3----3----2-------------3--3----3--3----3--1---------------------x--3p0----|
G|2----2----2-------------2--2----2--2----2--2------2---2---2---2--x--2p0----|
D|-------------0-0-0-0----0--0----0--0----0-------0---0---0---0----x--0------|
A|---------------------------------------------------------------------------|
E|---------------------------------------------------------------------------|


************************************

| /   slide up
| \   slide down
| h   hammer-on
| p   pull-off
| ~   vibrato
| +   harmonic
| x   Mute note
| b   Bend
| pb  Pre-bend
| br  Bend release
| pbr Pre-bend release
| brb Bend release bend

************************************
Tap to rate this tab
# A B C D E F G H I J K L M N O P Q R S T U V W X Y Z