Song name
# A B C D E F G H I J K L M N O P Q R S T U V W X Y Z

Misc Unsigned Bands - Gotcha - Naked tab

Naked.
Gotcha!

Bas Intro:

G|---------------------------|
D|---------1-------------1---|
A|-0-1-2-3---3---0-1-2-4---4-|
E|---------------------------|

Soms varieert Bone wat.

Akkoorden Gitaar en Keyboard (Fender Rhodes):

  C7#9      C#7#?
|---------------|
|--4---------0--|
|--3---------4--|
|--2---------3--|
|--3---------4--|
|---------------|

Voor de sax begint, iets als:
|-----------------------------|
|----5--------5----------5----|
|------4---------4------------|
|-----------------------------|
|--4-------4----------4-------|
|-----------------------------|

Sax en Gitaar.
Met of zonder slide er tussen.
|------------------|
|-4/5-4/5-4/5-4/5--| enzovoort
|------------------|
|------------------|
|------------------|
|------------------|

|-4/5ó-4/5--|
|-4/5ó-4/5--| Enzovoort
|-----------|
|-----------|
|-----------|
     C7#9
Iíve never saw you naked.
     C#7#?
Iíve never saw you naked.
     C7#9
Iíve never saw you naked.
          C#7#?
With your body up in the air.


C7#9
Iíve never saw you naked.
     C#7#?
Iíve never saw you naked.
     C7#9
Iíve never saw you naked.
          C#7#?
Body is lying against another one.

Distortion stuk:

|---------------------------------------|
|---------------------------------------|
|---------------------------------------|
|---------------------------------------|
|--33333333333333333-4444444444444444---|
|---------------------------------------| Herhalen.


C7#9
Iíve never saw you naked.
     C#7#?
Iíve never saw you naked.
     C7#9
Iíve never saw you naked.
          C#7#?
With your body up in the air.



C7#9
Iíve never saw you naked.
     C#7#?
Iíve never saw you naked.

 C7#9
Iíve never saw you naked.
          C#7#?
Body is lying against another one.


Sax en Gitaar

Zelfde als couplet:

Iíve got this feeling.
This P-Funk feeling.
Iíve this feeling.
Iím seeing a Human being.
2x

Sax en Gitaar

C / / /

Gogo Beat.

C C# D Eb
Eb E F F# ?

C / / /

Gogo Beat

Distortion stuk.

Sax en Gitaar.

Akkoorden couplet.

Sax en Gitaar.
Tap to rate this tab
# A B C D E F G H I J K L M N O P Q R S T U V W X Y Z