Song name
# A B C D E F G H I J K L M N O P Q R S T U V W X Y Z

Misc Unsigned Bands - Camerawalls - I Love You Natalie tab

I LOVE YOU, NATALIE by Camerawalls


INTRO: G-Em-;(4x)


VERSE:
G                       Em
 Caught on line and off guard
G                             Em
 with your eyes that say your love
                 C
 haunting me for days
        Am                   D
 I just can't resist your mysterious gaze


CHORUS:

 I love you
 G       Em
 Natalie
  C                Am
 strange as it may seem
      D              Bm                     Am
 does anyone still believe in love at first sight?
       C          D
 yes I do, well I do now
 G       Em
 Natalie
   C                    Am
 I don't know your history
 D                      Bm                  Am C D
 let me take you to the top of my sad story fantasy


ADLIB:

e|-10--12----12-10--12----|
B|--------8------------8--|
G|------------------------|
D|------------------------|
A|------------------------|
E|------------------------|

e|------------------------------------------------------8-10-|
B|------------------------------------------------10-12------|
G|-------------------------------12-11h12p11-9/12------------|
D|---------9-10-12-10-9----10-12-----------------------------|
A|----9-10--------------12-----------------------------------|
E|-12--------------------------------------------------------|

etc..


NITRAM
05-11-10
5:48PM
Tap to rate this tab
 
# A B C D E F G H I J K L M N O P Q R S T U V W X Y Z