Song name
# A B C D E F G H I J K L M N O P Q R S T U V W X Y Z

Misc Unsigned Bands - All Get Out - Water And God tab

Ok so i've never tabbed before but i couldnt find tabs for this song so i decided to 
give'er... here it goes... bear with me please.

Intro:
if you want to play the keyboard part it goes:

e-------------12-12-14-12----------------12-12-14-12---14-12-----------------|
B--12-12-15-15------------15-------15-15-------------15------15-12-15-15-----|
G----------------------------14-14---------------------------------------14~-|
D----------------------------------------------------------------------------|
A----------------------------------------------------------------------------|
E----------------------------------------------------------------------------|

guitar part is just power chords pretty much like the rest of the song..

e---------------------------------------------------------------------------|
B---------------------------------------------------------------------------|
G--7777777777777777-7777777777777777-7-6-7-8-999999--777777777777-7-77-9-99-|
D--7777777777777777-7777777777777777-7-6-7-8-999999--777777777777-7-77-9-99-|
A--5555555555555555-5555555555555555-5-4-5-6-777777--555555555555-5-55-7-77-|
E---------------------------------------------------------------------------|

e---------------------------------------------------------------------------|
B---------------------------------------------------------------------------|
G----------77777777---------------------------------------------------------|
D--11-1111-77777777---------------------------------------------------------|
A--9-9-9---55555555---------------------------------------------------------|
E---------------------------------------------------------------------------|
play either of these twice and you got your intro..

verse:
palm mute these a lot!

e---------------------------------------------------------------------------|
B---------------------------------------------------------------------------|
G--77777777777777-44444444-------------------4444-6666-77777777-------------|
D--77777777777777-44444444-44444444-55555555-4444-6666-77777777-------------|
A--55555555555555-22222222-44444444-55555555-2222-4444-55555555-------------|
E--------------------------22222222-33333333--------------------------------|

Played X4, but on the 3rd  a picking with distortion going something like this..

e------------------------|
B------------------------|
G--7-7-7---7-7-----------|
D-7-7-7-7-7-7------------|
A------------------------|
E------------------------|

Prechorus:
palm-muted, and really quiet..

e---------------------------------------------------------------------------|
B---------------------------------------------------------------------------|
G--7777777777777777-7777777777777777-9999999999999999-7777777777777777------|
D--7777777777777777-7777777777777777-9999999999999999-7777777777777777------|
A--5555555555555555-5555555555555555-7777777777777777-5555555555555555------|
E---------------------------------------------------------------------------|

Chorus:

Same as prechorus but not palm-muted and open!

Verse 2:
On "Water and God Still Fills My Soul.." you play a walk down thing:

e----------------------------|
B----------------------------|
G----------------------------|
D--11111111-9999-77777777----|
A--9999-----7777-55555555----|
E----------------------------|

Verse 2:
From the walkdown, go into the verse again

Chorus

Intro again X2

Outro:
A little different than the prechorus...but close... put more emphasis on hitting the 
strings for a higher sound...palm muted!

e---------------------------------------------------------------------------|
B---------------------------------------------------------------------------|
G--7777777777777777-7777777777777777-99999999-1111111111111111--77777777----|
D--7777777777777777-7777777777777777-99999999-9-9-9-9-9-9-9-9---77777777----|
A--5555555555555555-5555555555555555-77777777-9-9-9-9-9-9-9-9---55555555----|
E---------------------------------------------------------------------------|

Again with the drum beat:


e----------------------------------------------------------------------------|
B----------------------------------------------------------------------------|
G--7777777777777777-7777777777777777-99999999-1111111111111111-99999999------|
D--7777777777777777-7777777777777777-99999999-9-9-9-9-9-9-9-9--99999999------|
A--5555555555555555-5555555555555555-77777777-9-9-9-9-9-9-9-9--77777777------|
E----------------------------------------------------------------------------|


e------------------------------------------------------------------------|
B------------------------------------------------------------------------|
G--1111111111111111-99999999-1111111111111111-99999999-1111111111111111--|
D--1111111111111111-99999999-1111111111111111-99999999-1111111111111111--|
A--9-9-9-9-9-9-9-9--77777777-9-9-9-9-9-9-9-9--77777777-1111111111111111--|
E------------------------------------------------------------------------|

e---------------|
B---------------|
G--7-7--7~~~----|
D--7-7--7~~~----|
A--5-5--5~~~----|
E---------------|

Notes:
ok, well thats it...
it took me long enough but i hope to tab more songs.
thanks for reading and i hope you enjoy it...

i'd like to thank...

All Get Out, for making this song.

YouTube for letting me hear it over and over, getting it right.

My Computer, for letting me type this!

Tee HEE
Tap to rate this tab
# A B C D E F G H I J K L M N O P Q R S T U V W X Y Z