Song name
# A B C D E F G H I J K L M N O P Q R S T U V W X Y Z

Misc Unsigned Bands - Portal - Still Alive tab

Melody

---3-2-0-0-2---3-2-0-0-2---0------0-2-3-0-----0-----2--|
-------------------------3----------------2-3----------|
-----------------------------2--2---------------2-2----|
-------------------------------------------------------|
-------------------------------------------------------|
-------------------------------------------------------|

---3-2-0-0-2---3-2-0-0-2---0------0-2-3-0-----0-----0--|
-------------------------3----------------2-3-----3----|
-----------------------------2--2---------------2------|
-------------------------------------------------------|
-------------------------------------------------------|
-------------------------------------------------------|

--1-0------------1-0----------------------1-3-1-0------|
------3-1----0-1-----3-3-1-3-1-1-1----0-1---------3-3--|
-----------2------------------------2------------------|
-------------------------------------------------------|
-------------------------------------------------------|
-------------------------------------------------------|

--0-1-1--3-5-6-5-3-1-5-5-3-3-1-1-------1-1-0--2-2-2----|
---------------------------------3-1-3-----------------|
-------------------------------------------------------|
-------------------------------------------------------|
-------------------------------------------------------|
-------------------------------------------------------|

---3-2-0-0-2---3-2-0-0-2---0------0-2-3-0-----0-----2--|
-------------------------3----------------2-3----------|
-----------------------------2--2---------------2-2----|
-------------------------------------------------------|
-------------------------------------------------------|
-------------------------------------------------------|

---3-2-0-0-2---3-2-0-0-2---0------0-2-3-0-----0-----0--|
-------------------------3----------------2-3-----3----|
-----------------------------2--2---------------2------|
-------------------------------------------------------|
-------------------------------------------------------|
-------------------------------------------------------|

--1-0------------1-0----------------------1-3-1-0------|
------3-1----0-1-----3-3-1-3-1-1-1----0-1---------3-3--|
-----------2------------------------2------------------|
-------------------------------------------------------|
-------------------------------------------------------|
-------------------------------------------------------|

--0-1-1--3-5-6-5-3-1-5-5-3-3-1-1-------1-1-0--2-2-2----|
---------------------------------3-1-3-----------------|
-------------------------------------------------------|
-------------------------------------------------------|
-------------------------------------------------------|
-------------------------------------------------------|

---3-2-0-0-2---3-2-0-0-2---0------0-2-3-0-----0-----2--|
-------------------------3----------------2-3----------|
-----------------------------2--2---------------2-2----|
-------------------------------------------------------|
-------------------------------------------------------|
-------------------------------------------------------|

---3-2-0-0-2---3-2-0-0-2---0------0-2-3-0-----0-----0--|
-------------------------3----------------2-3-----3----|
-----------------------------2--2---------------2------|
-------------------------------------------------------|
-------------------------------------------------------|
-------------------------------------------------------|

--1-0------------1-0----------------------1-3-1-0------|
------3-1----0-1-----3-3-1-3-1-1-1----0-1---------3-3--|
-----------2------------------------2------------------|
-------------------------------------------------------|
-------------------------------------------------------|
-------------------------------------------------------|

--0-1-1--3-5-6-5-3-1-5-5-3-3-1-1-------1-1-0--2-2-2----|
---------------------------------3-1-3-----------------|
-------------------------------------------------------|
-------------------------------------------------------|
-------------------------------------------------------|
-------------------------------------------------------|


--5-5-7-5-2---0-2-2-----5-5-7-5-2---0-2-2--------------|
------------3---------------------3--------------------|
-------------------------------------------------------|
-------------------------------------------------------|
-------------------------------------------------------|
-------------------------------------------------------|

--5-5-7-5-2---0-2-2-----5-5-7-5-2---0-2-2--------------|
------------3---------------------3--------------------|
-------------------------------------------------------|
-------------------------------------------------------|
-------------------------------------------------------|
-------------------------------------------------------|

--5-5-7-5-2---0-2-2-----3-6-6--3-2-2-------------------|
------------3------------------------------------------|
-------------------------------------------------------|
-------------------------------------------------------|
-------------------------------------------------------|
-------------------------------------------------------|
Tap to rate this tab
# A B C D E F G H I J K L M N O P Q R S T U V W X Y Z