Song name
# A B C D E F G H I J K L M N O P Q R S T U V W X Y Z

Misc Unsigned Bands - Anthony - Samanthas Lullaby tab

Intro
e|--------2p0---------0h2-----2h3p2p0-----0|
B|------3-----3-----3-----3-----------3---3|
G|--0h2---------2p0---------0-----------0-0|
D|----------------------------------------2|
A|----------------------------------------3|
E|-----------------------------------------|

e|------------0-----3p2----|
B|------3-------3-------3--|
G|--0-----0-------0-------0|
D|2---2-----2--------------|
A|3------------------------|
E|-------------------------|

Theres more to come but I can't think of it... I'll post more when I have my guitar in 
of me. I already know the notes... Just hard to think of without my guitar... This is 
to my most wonderful girlfriend Samantha.
Tap to rate this tab
# A B C D E F G H I J K L M N O P Q R S T U V W X Y Z