Song name
# A B C D E F G H I J K L M N O P Q R S T U V W X Y Z

Misc Unsigned Bands - Tastea - Performed By The Uncos tab

Here's a song that I found on Youtube as a viral promotion by fusion3films 
for a new chain of bubble tea places called Tastea. This song is 
really catchy and the music video's pretty awesome as well. This is my 
first tab so let me know how I did in the form of feedback. Enjoy!!!

Video: http://www.youtube.com/watch?v=VAwWcfqJvqc

Song: Tastea!

PM = Palm Mute

E||---------------------|------------------------|------------------------|
B||---------------------|------------------------|------------------------|
G||---------------------|------------------------|------------------------|
D||--4---4---4---4--4-4-|--2----2----2----2--2-2-|------------------------|
A||---------------------|------------------------|--4----4----4----4--4-4-|
E||---------------------|------------------------|------------------------|

 
------------------------|------------------------|------------------------|
------------------------|------------------------|------------------------|
------------------------|------------------------|------------------------|
--0----0----0----0--0-0-|--4----4----4----4--4-4-|--2----2----2----2--2-2-|
------------------------|------------------------|------------------------|
------------------------|------------------------|------------------------|

 
------------------------|------------------------|------------------------|
------------------------|------------------------|------------------------|
------------------------|------------------------|------------------------|
------------------------|--0----0----0----0--0-0-|--4----4----4----4--4-4-|
--4----4----4----4--4-4-|------------------------|------------------------|
------------------------|------------------------|------------------------|


------------------------|--------------------|--------------------|
------------------------|--------------------|--------------------|
------------------------|--------------------|--------------------|
--2----2----2----2--2-4-|--4--------0--------|--4--------0--------|
------------------------|--------------------|--------------------|
------------------------|--------------------|--------------------|


------------------------|------------------------|----------------------|
------------------------|------------------------|----------------------|
------------------------|------------------------|----------------------|
--4----4----4----4--4-4-|--2----2----2----2--2-4-|--4----0--------------|
------------------------|------------------------|----------------------|
------------------------|------------------------|----------------------|

  
----------------------|------------------------|------------------------|
----------------------|------------------------|------------------------|
----------------------|------------------------|------------------------|
--4----0--------------|--7----7----7----7--7-7-|------------------------|
----------------------|------------------------|--7----7----7----7--7-7-|
----------------------|------------------------|------------------------|

  
------------------------|------------------------|------------------------|
------------------------|------------------------|------------------------|
------------------------|------------------------|------------------------|
------------------------|------------------------|--7----7----7----7--7-7-|
--9----9----9----9--9-9-|--5----5----5----5--5-5-|------------------------|
------------------------|------------------------|------------------------|


------------------------|------------------------|------------------------|
------------------------|------------------------|------------------------|
------------------------|------------------------|------------------------|
------------------------|------------------------|------------------------|
--7----7----7----7--7-7-|--9----9----9----9--9-9-|--5----5----5----5--5-5-|
------------------------|------------------------|------------------------|


  PM   PM   PM   PM PM PM    PM   PM   PM   PM PM PM  
--------------------------|--------------------------|
--------------------------|--------------------------|
--------------------------|--------------------------|
--4----4----4----4--4--4--|--2----2----2----2--2--2--|
--------------------------|--------------------------|
--------------------------|--------------------------|


  PM   PM   PM   PM PM PM    PM   PM   PM   PM PM PM    
--------------------------|--------------------------|
--------------------------|--------------------------|
--------------------------|--------------------------|
--------------------------|--0----0----0----0--0--0--|
--4----4----4----4--4--4--|--------------------------|
--------------------------|--------------------------|


  PM   PM   PM   PM PM PM    PM   PM   PM   PM PM PM   
--------------------------|--------------------------|
--------------------------|--------------------------|
--------------------------|--------------------------|
--4----4----4----4--4--4--|--2----2----2----2--2--2--|
--------------------------|--------------------------|
--------------------------|--------------------------|


  PM   PM   PM   PM PM PM    PM   PM   PM   PM PM PM                           
------------------------|--------------------------|------------------------|
------------------------|--------------------------|------------------------|
------------------------|--------------------------|------------------------|
------------------------|--0----0----0----0--0--0--|--7----7---------7--7-7-|
--4---4----4---4--4--4--|--------------------------|------------------------|
------------------------|--------------------------|------------------------|

   
------------------------|------------------------------|
------------------------|------------------------------|
------------------------|------------------------------|
--9----11----7----7--7--|--12----12--12--12----12--12--|
------------------------|------------------------------|
------------------------|------------------------------|

  
--------------------------|------------------------|------------------------|
--------------------------|------------------------|------------------------|
--------------------------|------------------------|------------------------|
--14----14----16----12----|--7----7---------7--7-7-|--9----11----7----7--7--|
--------------------------|------------------------|------------------------|
--------------------------|------------------------|------------------------|


------------------------------|--------------------------|
------------------------------|--------------------------|
------------------------------|--------------------------|
--12----12--12--12----12--12--|--14----14----16----12----|
------------------------------|--------------------------|
------------------------------|--------------------------|

        
------------------------|------------------------|--------------------|
------------------------|------------------------|--------------------|
------------------------|------------------------|--------------------|
--4----4----4----4--4-4-|--2----2----2----2--2-4-|--4--------0--------|
------------------------|------------------------|--------------------|
------------------------|------------------------|--------------------|


--------------------|------------------------|------------------------|
--------------------|------------------------|------------------------|
--------------------|------------------------|------------------------|
--4--------0--------|--4----4----4----4--4-4-|--2----2----2----2--2-4-|
--------------------|------------------------|------------------------|
--------------------|------------------------|------------------------|

 
----------------------|----------------------|------------------------|
----------------------|----------------------|------------------------|
----------------------|----------------------|------------------------|
--4----0--------------|--4----0--------------|--7----7----7----7--7-7-|
----------------------|----------------------|------------------------|
----------------------|----------------------|------------------------|

  
------------------------|------------------------|------------------------|
------------------------|------------------------|------------------------|
------------------------|------------------------|------------------------|
------------------------|------------------------|------------------------|
--7----7----7----7--7-7-|--9----9----9----9--9-9-|--5----5----5----5--5-5-|
------------------------|------------------------|------------------------|

  
------------------------|------------------------|------------------------|
------------------------|------------------------|------------------------|
------------------------|------------------------|------------------------|
--7----7----7----7--7-7-|------------------------|------------------------|
------------------------|--7----7----7----7--7-7-|--9----9----9----9--9-9-|
------------------------|------------------------|------------------------|

    
------------------------|---------------------|---------------------|
------------------------|--3--------3----3----|--5--------5----7----|
------------------------|---------------------|---------------------|
------------------------|---------------------|---------------------|
--5----5----5----5--5-5-|---------------------|---------------------|
------------------------|---------------------|---------------------|

  
---------------------|--------------------|---------------------|
---------------------|--------------------|--3--------3----3----|
--7--------7----7----|--------------------|---------------------|
---------------------|--9--------7--------|---------------------|
---------------------|--------------------|---------------------|
---------------------|--------------------|---------------------|

       
---------------------|---------------------|--------------------|
--5--------5----7----|---------------------|--------------------|
---------------------|--7--------7----7----|--------------------|
---------------------|---------------------|--9--------7--------|
---------------------|---------------------|--------------------|
---------------------|---------------------|--------------------|

        
--------------------------|--------------------------|
--3--3--3--3--3--3--3--3--|--5--5--5--5--5--5--5--5--|
--------------------------|--------------------------|
--------------------------|--------------------------|
--------------------------|--------------------------|
--------------------------|--------------------------|

   
-----------------------|-------------------------|--------------------------|
-7--7--7-7--7--7-7--7--|--3----3--3-------3--3-3-|--3--3--3--3--3--3--3--3--|
-----------------------|-------------------------|--------------------------|
-----------------------|-------------------------|--------------------------|
-----------------------|-------------------------|--------------------------|
-----------------------|-------------------------|--------------------------|


-----------------------|--------------------------|-------------------------|
-5--5--5-5--5--5-5--5--|--7--7--7--7--7--7--7--7--|--8----8--8-------8--8-8-|
-----------------------|--------------------------|-------------------------|
-----------------------|--------------------------|-------------------------|
-----------------------|--------------------------|-------------------------|
-----------------------|--------------------------|-------------------------|

         
------------------------|------------------------|--------------------|
------------------------|------------------------|--------------------|
------------------------|------------------------|--------------------|
--4----4----4----4--4-4-|--2----2----2----2--2-4-|--4--------0--------|
------------------------|------------------------|--------------------|
------------------------|------------------------|--------------------|


--------------------|------------------------|------------------------|
--------------------|------------------------|------------------------|
--------------------|------------------------|------------------------|
--4--------0--------|--4----4----4----4--4-4-|--2----2----2----2--2-4-|
--------------------|------------------------|------------------------|
--------------------|------------------------|------------------------|

 
----------------------|----------------------|------------------------|
----------------------|----------------------|------------------------|
----------------------|----------------------|------------------------|
--4----0--------------|--4----0--------------|--7----7----7----7--7-7-|
----------------------|----------------------|------------------------|
----------------------|----------------------|------------------------|

  
------------------------|------------------------|------------------------|
------------------------|------------------------|------------------------|
------------------------|------------------------|------------------------|
------------------------|------------------------|------------------------|
--7----7----7----7--7-7-|--9----9----9----9--9-9-|--5----5----5----5--5-5-|
------------------------|------------------------|------------------------|

  
------------------------|------------------------|------------------------|
------------------------|------------------------|------------------------|
------------------------|------------------------|------------------------|
--7----7----7----7--7-7-|------------------------|------------------------|
------------------------|--7----7----7----7--7-7-|--9----9----9----9--9-9-|
------------------------|------------------------|------------------------|

        
-----------------------|-------------------|-------------------||
-----------------------|-------------------|-------------------||
-----------------------|-------------------|-------------------||
-----------------------|-------------------|-------------------||
--5----5--5--5----5----|-------------------|-------------------||
-----------------------|-------------------|-------------------||

Tap to rate this tab
# A B C D E F G H I J K L M N O P Q R S T U V W X Y Z