Song name
# A B C D E F G H I J K L M N O P Q R S T U V W X Y Z

Misc Unsigned Bands - A Love Like Pi - A Merry Cain tab

This is my first tab. So don't judge too harshly :X


|--------------------------|------------------------------|
|-------------------2~-----|------------------2--0--------|
|-----------2--4-----------|-----------2-2-4--------2-----|
|-----2--4-----------------|-----2--4---------------------|
|--4-----------------------|--4---------------------------|
|--------------------------|------------------------------|

|--------------------------|------------------------------|
|--------2/3-2-0-----------|-------2/3-2--0-----2---------|
|------------------2~------|-----------------2------------|
|--0--0--------------------|--0--0------------------------|
|--------------------------|------------------------------|
|--------------------------|------------------------------|
Tap to rate this tab
 
# A B C D E F G H I J K L M N O P Q R S T U V W X Y Z