Song name
# A B C D E F G H I J K L M N O P Q R S T U V W X Y Z

Misc Unsigned Bands - Dantalife - Iii tab

Dantalife - "III"

Tuning
C F A♯ D♯ G C

Verse One

C-----------------------------|
G-----------------------------|
D-------09--------------------|
A----09-----------------------|
F-07-----------07-10-10-09-09-|
C-----------08----------------|

C-------------------------------|
G----------08-------------------|
D-------09----------------------|
A----09-------------------------|
F-07-------------07-12-12-10-10-|
C-------------08----------------|

Repeat, then....

C----------------------------------------|
G----------------------------------------|
D----------09--09--09--------------------|
A-------09---09--09---------09--09--07---|
F----07------------------07---10--10--09-|
C-00------------------08-----------------|

C----------------------------------------|
G----------------------------------------|
D----------09--09--09--------------------|
A-------09---09--09---------09--09--09---|
F----07------------------07---12--12--10-|
C-00------------------08-----------------|

Repeat, then...

C--------------------------|
G-08-----------08----------|
D-09-09--------09-09-------|
A-09-09-09-09--09-09-09-09-|
F-07-07-10-09--07-07-12-10-|
C-00-08-08-08--00-08-08-08-|

C--------------------------|
G-08-----------08----------|
D-09-09--------09-09-------|
A-09-09-09-09--09-09-09-09-|
F-07-07-10-09--07-07-10-12-|
C-00-08-08-08--00-08-08-08-|

C--------------------------------------------|
G-08-----------08----------------------------|
D-09-09--------09-09-------------------------|
A-09-09-09-09--09-09-09-09-02-02-02-02-02-02-|
F-07-07-10-09--07-07-12-10-02-02-02-02-02-02-|
C-00-08-08-08--00-08-08-08-00-00-00-00-03-00-|

C-----------------------------------------|
G-----------08----------------------------|
D-09--------09-09-------------------------|
A-09-09-09--09-09-09-09-02-02-02-02-02-02-|
F-07-10-09--07-07-10-12-02-02-02-02-02-02-|
C-08-08-08--00-08-08-08-00-00-00-00-03-00-|

C-----------------------------------------|
G-----------08----------------------------|
D-09--------09-09-------------------------|
A-09-09-09--09-09-09-09-02-02-02-02-02-02-|
F-07-10-09--07-07-12-10-02-02-02-02-02-02-|
C-08-08-08--00-08-08-08-00-00-00-00-03-00-|


C--------------------------|
G-----------08-------------|
D-09--------09-09----------|
A-09-09-09--09-09-09-------|
F-07-10-09--07-07-10-14-14-|
C-08-08-08--00-08-08-------|

Transition

C----------------------|
G----------------------|
D----------------------|
A-12-10-05-02-02pm02pm-|
F-12-10-05-02-02pm02pm-|
C-10-08-03-00-00pm00pm-|

Verse Two

C-------------------|
G-------------------|
D-09-12-07-05-04-05-|
A-09-12-07-05-04-05-|
F-07-10-05-03-02-03-|
C-00-00-00-00-00-00-|

Fill

C----------|
G----------|
D-09-12-07-|
A-09-12-07-|
F-07-10-05-|
C-00-00-00-|

Repeat Verse Two

Transition

C----|
G----|
D-09-|
A-10-|
F-07-|
C-00-|

Verse Three

C-------------------------------|
G-------------------------------|
D-09-09-09-11-------------------|
A-09-09-10-12-10-09-09----------|
F-07-07-07-09-09-10-10-09-07/09-|
C-00-00-00-00-00-00-00-10-08/10-|

Transition

C----------|
G----------|
D----------|
A-09-------|
F-10-09-07-|
C-00-10-08-|

Verse Four

Drum and Bass for four measures, then...

C----------------------------------------------------------------|
G----------------------------------------------------------------|
D----------------------------------------------------------------|
A----------------------------------------------------------------|
F---09--09--09--09--07--07--07--07--09--09--09--09--09--09--09---|
C-10--10--10--10--08--08--08--08--10--10--10--10--10--10--10--10-|

Repeat for four measures, then end on...

C----|
G----|
D----|
A-09-|
F-10-|
C-00-|

Feedback, then...

Verse Five

C----02--------------02-------------|
G-----------------------------------|
D-----------------------------------|
A-02----02--------02----02----------|
F-02----02--------02----02----------|
C-01----03/08/05--01----03/08/05/10-|

C----02--------------02----------|
G--------------------------------|
D--------------------------------|
A-02----02--------02----02-------|
F-02----02--------02----02-------|
C-01----03/08/05--01----03/08/10-|

Verse Six

C----------|
G----------|
D----------|
A-02-10-12-|
F-02-10-12-|
C-00-08-10-|

Repeat four times, then....

C----------|
G----------|
D-17-16-09-|
A-17-17-09-|
F-15-15-07-|
C-00-00-00-|

Fill

C-------------------------------|
G-12-12-12-12-10/12-12-12-12-12-|
D-09-09-09-09-00/00-00-00-00-00-|
A-10-10-10-10-00/00-09-09-09-09-|
F-------------07/07-10-10-10-10-|
C-------------08/10-------------|

Outro

C----|
G----|
D----|
A-02-|
F-02-|
C-01-|
Tap to rate this tab
# A B C D E F G H I J K L M N O P Q R S T U V W X Y Z