Song name
# A B C D E F G H I J K L M N O P Q R S T U V W X Y Z

Misc Unsigned Bands - Guitarist Among The Dead - What You Did To Me tab

pm--   -
b-00-1-0-1-0---------3-1-0----------------------------------------------------|
f----1---1-0----------- -0----------------------------------------------------|
b-----------------------------------------------------------------------------|
e-----------------------------------------------------------------------------|
g--------------------------------------------------------------15 15 15 15 15-|
d-------------------------------15 15 15 15 15 15-12 12 12 12 12--------------|


b-----------------------------------------------------------------------------|
f-----------------------------------------------------------------------------|
b-----------------------------------------------14 14 14 14 14-12 12 12 12 12-|
e---------------14 14 14 14 14 14-12 12 12 12 12------------------------------|
d-12 12 12 12 12--------------------------------------------------------------|
g-----------------------------------------------------------------------------|
pm             ----                        --   -   -   --  --   --
b-0------------0--0-1-3-1-0-1-5-1-0--55555-00---0-3-0-5-00--00-3-00-5--0-----|
f-0-----------------1-3-1-0-1-5-1-0--55555----1---3---5----3---3----5--0-----|
b---------------------------------------------3------------5-----------------|
e----------------------------------------------------------------------------|
d----------------------------------------------------------------------------|
g----------------------------------------------------------------------------|

b--11111111333333355555557777777--12 12 12 12 12 12 12 12 12 12 12------------|
f-----------------------------------------------------------------------------|
b-----------------------------------------------------------------------------|
e-----------------------------------------------------------------------------|
d-----------------------------------------------------------------------------|
g------------------------------------------------------------------22b--22-20-|
pm                     --   -
b------------0---------00-1-0-1-0--------------------------------------------|
f------------0------------1---1-0--------------------------------------------|
b----------------------------------------------------------------------------|
e----------------------------------------------------------------------------|
d-22-20----------------------------------------------------------------------|
g----------------------------------------------------------------------------|
Tap to rate this tab
# A B C D E F G H I J K L M N O P Q R S T U V W X Y Z