Song name
# A B C D E F G H I J K L M N O P Q R S T U V W X Y Z

Misc Unsigned Bands - Sabrina - So Sick tab

SO SICK by Sabrina


INTRO: Gm-Eb-Bb-F

e|------------------------------------------|
B|---8/10-11-10-8---------------------------|
G|-7--------------6/7-----------------------| 2x
D|--------------------8------8-10-10/12-10--|
A|----------------------8h10----------------|
E|------------------------------------------|

e|-10-8--------------------------------------------|
B|------11\10-10/11-10-8---------------------------|
G|-----------------------6/7-----------------------|
D|---------------------------8------8-10-10/12-10--|
A|-----------------------------8h10----------------|
E|-------------------------------------------------|

e|------------------|
B|------------------|
G|---------------10-|
D|-12p10-8\7-7-8----|
A|------------------|
E|------------------|


VERSE:
                 Gm          Eb
 Gotta change my answering machine,
 Bb            F
 now that I'm alone
             Gm               Eb
 Cause right now it says that we
 Bb                F
 can't come to the phone
       Gm               Eb
 And I know it makes no sense
        Bb                 F
 caused you walked out the door
              Gm                        Gm
 But it's the only way I hear your voice anymore


CHORUS: Gm-Eb-Bb-F

etc...

NITRAM
05-13-10
6:21PM
Tap to rate this tab
 
# A B C D E F G H I J K L M N O P Q R S T U V W X Y Z