Song name
# A B C D E F G H I J K L M N O P Q R S T U V W X Y Z

Misc Unsigned Bands - A Tragedy Without Purpose - More Than Beautiful tab

Tuning: DADGAD

_GUITAR I_
D|-------------------|
A|-------------------|
G|----------0--------|
D|-----0------0---0--|
A|---9----9-----9----|X4
D|-0-----------------|

D|---------------------|
A|---------------------|
G|-----------0---------|
D|------0-------0----0-|
A|---10---10------10---|X2 
D|-0-------------------|

D|-------------------|
A|-------------------|
G|----------0--------|
D|-----0------0---0--|X2
A|---7----7-----7----| [REPEAT WHOLE THING CONTINUOSLY]
D|-0-----------------|

Repeat those parts twice

While thats playin' _Guitar II_ plays:


D|---------------------|
A|---------0-----------|
G|-----------0---0-----|
D|-----0-------0-------|
A|---0---0-------------| 
D|-0-------------------| 

_Guitar II plays this after Guitar I plays its part 2 times through_
D|-x-x-x-x-x-x--x--x--x--x--x-x-x-x-x--x--x--x----x-x-|
A|-9-9-9-9-9/10-10-10-10-10\7-7-7-7/10-10-10-10\--9-9-|
G|-x-x-x-x-x-x--x--x--x--x--x-x-x-x-x--x--x--x----x-x-|
D|-x-x-x-x-x-x--x--x--x--x--x-x-x-x-x--x--x--x----x-x-|
A|-9-9-9-9-9/10-10-10-10-10\7-7-7-7/10-10-10-10\--9-9-|
D|-0-0-0-0-0-0--0--0--0--0--0-0-0-0-0--0--0--0-0--0-0-|X2


D|-x-x-x-x-x-x-x-x-x-x-x-x-x-x-x--x--x--x----x-x-|
A|-5-5-5-5-5/7-7-7-7-7\5-5-5-5/10-10-10-10\--9-9-|
G|-x-x-x-x-x-x-x-x-x-x-x-x-x-x-x--x--x--x----x-x-|
D|-x-x-x-x-x-x-x-x-x-x-x-x-x-x-x--x--x--x----x-x-|
A|-5-5-5-5-5/7-7-7-7-7\5-5-5-5/10-10-10-10\--9-9-|
D|-0-0-0-0-0-0-0-0-0-0-0-0-0-0-0--0--0--0----0-0-|X2

End 2nd one through with just one
D|-x-|
A|-9-|
G|-x-|
D|-x-|
A|-9-|
D|-0-|

Thats what I've got so far.


Tap to rate this tab
 
# A B C D E F G H I J K L M N O P Q R S T U V W X Y Z