Song name
# A B C D E F G H I J K L M N O P Q R S T U V W X Y Z

Misc Unsigned Bands - Eufonius Riya - Yuki No Kaerimichi tab

Artist: Eufonius (sung by Riya)
from anime Bungaku Shoujo (2010)

Title:
Yuki no Kaerimichi

i didn't expect to tab this out but bcuz i'm really" like thiz song (eufonius 
rarely create songs wif
guitar, usually wif piano), so i search the tab by maself everytimez i got a break.

Intro:
  (F)     (Am7)   (Dm7)           (F/G)     
e|-------------------------1----------------------------------------------|
B|-----1-------1-------1-------1-----------1----1-1-----------------------|
G|-----2-------0-----2---2---2---2-----2-----02---------------------------|
D|---3---3---2---2-0-----------------3---3--------------------------------|
A|------------------------------------------------------------------------|
E|-1-------0-----------------------3--------------------------------------|

Verse:
  (C)     (Em)    (Am)          (E->F)            (F/G)
e|-------------------------0----------------------------------------------|
B|-----1---0-----0-1-----------1-----------1---------------0-0>1-0--------|
G|-----0-------0-------2-----2---------2-------2-------2---0-0>2-0--------|
D|---2---2---2-------2---2-----------3---3---3---3---3---3----------------|
A|-3-------2-------0-----------------------------------------0------------|
E|-------------------------------0-1---------------3-------3-----3--------|
  shiroi sora no shita~            tsumetai  yubisaki

  (C)     (Em)    (Am) (varies)   (F)     (G)     (C)         (E7)
e|-----0-------------------0-------------------------------0--------------|
B|-1-------0-----0-1---1-3---3-1-0-------1-----0---1-----1-----3----------|
G|---0---------0-----2-----0-------2---2-------0-------0---------1--------|
D|-----------1---------2-3---3-2-0---3-------0---0---2--------------------|
A|-3-----3-2-------0---------------3---------------3---------3-2----------|
E|-----------------------------------------3------------------------------|
 mafura~ no naka ni ha             yasashii   kuuki~

Pre-Chorus:
  (Am)    (G)     (F)             (Am)    (G)     (F)
e|-------------------------1-------------------------------1--------------|
B|-1-----1-----0---------1-----1-------1-------0---------1-----1----------|
G|-----2-------0-------2-----2---2-----2-------0-------2-----2---2--------|
D|---2-------0---0---3---------------2---2---0---0---3--------------------|
A|-0-------------------------------0--------------------------------------|
E|---------3-------1-----------------------3-------1----------------------|
 hajimete no~ kimochi~             tsutae kire~nakute~

  (G#)            (A#)    (C) (A#)
e|------------------------------------------------------------------------|
B|---------4-------------3-1----------------------------------------------|
G|-----5-------5-------3-------3------------------------------------------|
D|---6---6---6---6---3----------------------------------------------------|
A|-----------------1-------3---1------------------------------------------|
E|-4----------------------------------------------------------------------|
 warau koto shika deki~na~ku~te

Chorus (actually has many varies of playing):
  (C)     (G)     (F)     (G)     (Em)    (Am)    (Dm)    (G->G#)
e|-----------------------------------------------------1------------------|
B|-----1---------0-------1-----0-------0---------1-----3-------0----------|
G|-----0-------0-------2-------0-------0-------2-----2---2-----1----------|
D|---2---2---0-------3-------0---0---1---1---2-----0---------0------------|
A|-3---------------------------------------0------------------------------|
E|---------3-------1-------3-------0-----------------------3---4----------|
  kimi ga kure~ta koto~ba ha      zenbu obo~eteru      watashi no

  (Am)    (G)     (Em)    (Dm)          (A->G)            (C)
e|---------------------------------1-------------------------------0------|
B|-------1-----0-------0-------3-------3-----------0-----0-1-----------1--|
G|-----2-------0-------0-----2---2---2---------0-------0-------0-----0---0|
D|---2-------0---0---1---1-0-----------------0---0---0-------2---2--------|
A|-0-------------------------------------0-----------------3--------------|
E|---------3-------0-----------------------3------------------------------|
karada no oku~ de kagayaiteru, itsumo soba ni iru mitai da ne

e|---------0------|
B|-------------1~-|
G|-----0-----0----| (back to Verse 1 [below changes])
D|---2---2--------|
A|-3--------------|
E|----------------|

2nd one
changes:
Verse: F/G playing changes (more elastic motion)
Pre-chorus: all playing style (tabs) changes
Long Break/solo: jz play variably on the 3rd strings from below strings

On the final, replace (the original) C with Gsus4:
E|---------3---------------3-------3------------------------------|
B|-----3-------3-------3-------3---3------------------------------|
G|---5---5---5---5---5---5---5---5-5------------------------------|
D|---------------------------------5------------------------------|
A|-3-------------------------------3------------------------------|
E|-----------------3---------------3------------------------------|

There you go, enjoy!
ah, if u can rate this, im really appreciate it =)
Tap to rate this tab
 
# A B C D E F G H I J K L M N O P Q R S T U V W X Y Z