Song name
# A B C D E F G H I J K L M N O P Q R S T U V W X Y Z

Misc Unsigned Bands - Joshua Fit For Battle - Twelve Years Of Catholic Skool And This Is What I Learned tab

Band - Joshua Fit For Battle
Song - Twelve Years of Catholic Skool and This is What I Learned
Album - To Bring Our Own End

Tabbed By: SumFX (Tyler Freear)

Tuning - Drop D

Amazing Song From A Great "True" Screamo Band!!

Intro (Listen To The OPEN chords for strumming)
Guitar 1    Guitar 2
|-----------|----------------|
|-----------|----------------|
|-----------|-12b(13)-12-----|
|-----------|----------------|
|---------0-|-10b(11)-10--0--|
|-5b(6)5--0-|-------------0--|

Riff 1 (Listen To The OPEN chords for strumming)
|-------------------|
|-------------------|
|----888-----8-7-8--|
|----xxx-----x-x-x--|
|-0--666--0--6-5-6--|
|-0-------0---------|

Chorus
Tremolo Pick!
|----------------------|
|----------------------|
|----------------------|
|----------------------|
|-----------6666-5555--|
|-5555-6666------------|

Riff 2
|-------x2--------------|----x2---------------------|
|-----------------------|---------------------------|
|----88-----88-----88-7-|----88-----88-----1515-14--|
|----xx-----xx-----xx-x-|----xx-----xx-----x-x--x---|
|-0--66--0--66--0--66-5-|-0--66--0--66--0--1313-12--|
|-0------0------0-------|-0------0------0-----------|

Chorus 
Tremolo Pick!
|---------------------|
|---------------------|
|---------------------|
|---------------------|
|-----------6666-5555-|
|-5555-6666-----------|

(Listen For THE Worlds BEST Drum Fill)

Bridge
|----------------------------------------------|
|----------------------------------------------|
|------888-------101010-------131313--77777777-|
|------xxx-------x-x-x--------x-x-x---xxxxxxxx-|
|-000--666--000--8-8-8---000--111111--55555555-|
|-000-------000----------000-------------------|

|----------------------------------------------|
|----------------------------------------------|
|------888-------101010-------121212--77777777-|
|------xxx-------x-x-x--------x-x-x---xxxxxxxx-|
|-000--666--000--8-8-8---000--101010--55555555-|
|-000-------000----------000-------------------|

Guitar 1        Guitar 2 Occasionally Plays This
|---------------|----------|
|---------------|----------|
|-12--8--10--7--|-7--------|
|-x---x--x---x--|-x---etc--|
|-10--6--8---5--|-5--------|
|---------------|----------|


There Ya Go!

Rate & Comments Would Make Me A Happy Boy!
Tap to rate this tab
# A B C D E F G H I J K L M N O P Q R S T U V W X Y Z