Song name
# A B C D E F G H I J K L M N O P Q R S T U V W X Y Z

Misc Unsigned Bands - Blood Orange - Im Sorry We Lied tab

-------------------------------------------------------------------------------
                             I'm Sorry We Lied - Blood Orange
 -------------------------------------------------------------------------------
Tabbed by: ben pattyson

This is just an awesome and cool song.

Intro

NOTE: don't actually press the strings down for guitar 1.

Guitar 1

e|-------5------5--|
B|---5------5------|
G|-5---5--5---5----| repeat (little variations now and then)
D|-----------------|
A|-----------------|
E|-----------------|

Guitar 2

e|-12v----------------------------------------------------------------------|
B|-12v----------------------------------------------------------------------|
G|-12v----------------------------------------------------------------------|
D|--------------------7-7s9---9-7--9-9s10----------9-9s10--12-14--16-17-16--|
A|---------7---9-10-------------------------10-9----------------------------|
E|--------------------------------------------------------------------------|

e|------------------------------------|
B|------------------------------------|
G|------------------------------------|  repeat
D|------------------------------------|
A|-14-12---10-10s14--12-10-9-7--------|
E|-----------------------------10-9---|

Other bit

Guitar 1 (there is the odd harmonic here)

e|-7--7---7----------|
B|------5---5--------|
G|------------5-5----| repeat
D|-------------------|
A|-------------------|
E|-------------------|


| s  slide 
| h  hammer-on
| p  pull-off
| v  vibrato
===============================================================================
Tap to rate this tab
 
# A B C D E F G H I J K L M N O P Q R S T U V W X Y Z