Song name
# A B C D E F G H I J K L M N O P Q R S T U V W X Y Z

Misc Unsigned Bands - Salamin - Pulso tab

PULSO by Salamin


INTRO:

guitar 1:

e|---------------------------------|
B|---------------------------------|
G|---------------------------------|
D|-2~----7~----5~----7~----5~--7~--|
A|-2~----7~----5~----7~----3~--5~--|
E|-0~----5~----3~----5~------------|

guitar2:

e|-------------------------    ---------|
B|-------------------------    ---------|
G|------------------------- 4x ---------|
D|----5---4----------------    -5~--7~--|
A|------------7---5---5/7--    -3~--5~--|
E|-00---0---0---0---0------    ---------|

gutar 1 at 2: pasok sa 00:21

e|-------------------------    ---------------------|
B|-------------------------    ---------------------|
G|------------------------- 2x ---------------------|
D|----5---4----------------    -77777777--55555555--|
A|------------7---5---5/7--    -77777777--33333333--|
E|-00---0---0---0---0------    -55555555------------|

pasok sa 00:29

e|----------------------|
B|----------------------|
G|----------------------|
D|-2~----5~----7~----5~-|
A|-2~----3~----7~----3~-|
E|-0~----------5~-------|


VERSE:
Em           C
 Nahihirapan, nagbubulungan
Am                          C
 Rehas lang daw ang kanyang kaibigan
Em              C
 Walang pag-asa, sunog ang pera
Am                     C
 apoy ng katiwalian at abo ng sala


CHORUS:
   Em    G     Am    C
e|-----------------------|
B|-----------------------|
G|-----------------------| 4x
D|-2-x-x-5-x-x-7-x-x-10--|
A|-2-x-x-5-x-x-7-x-x-10--|
E|-0-x-x-3-x-x-5-x-x-8---|


VERSE: (ganun pa rin)

Nalilipasan, nalilimutan
itsurang nagmukhang iyong nadadaanan
Nag-iinuman,iyong ligaya
pader na iniihian ng iyong tinutulugan


CHORUS:
   Em    G     Am    C
e|-----------------------|
B|-----------------------|
G|-----------------------| 4x
D|-2-x-x-5-x-x-7-x-x-10--|
A|-2-x-x-5-x-x-7-x-x-10--|
E|-0-x-x-3-x-x-5-x-x-8---|


Fill in:
mata..
e|-------------------------    ---------------------|
B|-------------------------    ---------------------|
G|------------------------- 2x ---------------------|
D|----5---4----------------    -77777777--55555555--|
A|------------7---5---5/7--    -77777777--33333333--|
E|-00---0---0---0---0------    -55555555------------|
..ka....
e|-------------------------    ---------------------|
B|-------------------------    ---------------------|
G|------------------------- 2x ---------------------|
D|----5---4----------------    -77777777--55555555--|
A|------------7---5---5/7--    -77777777--33333333--|
E|-00---0---0---0---0------    -55555555------------|

Itaas and 'yong kamay, buksan mong iyong mata


BRIDGE: pasok sa 03:00

e|-----------------|
B|-----------------|
G|-----------------| 4x
D|-9-9-9-----------|
A|-9-9-9-12-11-10--|
E|-7-7-7-----------|


ADLIB:
  pasok sa 03:10 (mabilis to)
e|--------------------------------|
B|--------------------------------|
G|--------------------------------| 4x
D|--------------------------------|
A|---5h7---5h7---5h7---5h7---5h7--|
E|-0-----0-----0-----0-----0------|

pasok sa 03:18 (eto mabagal)
e|--------------------------------    \
B|--------------------------------     \
G|-------------------------------- 2x   \
D|--------------------------------       \
A|---5-7---5-7---5-7---5-7-9-9-9--        \
E|-0-----0-----0-----0------------         \
                                            2x
e|--------------------------------         /
B|--------------------------------        /
G|-------------------------------- 2x    /
D|---4-5---4-5---4-5---4-5-8-8-8--      / 
A|--------------------------------     / 
E|-0-----0-----0-----0------------    /


etc... paulit-ulit nalang yung ibang parts.. 
       medyo mag-iiba lang yung chord pattern 
       sa last chorus pero dun parin yon



NITRAM
05-18-10
10:25 AM
Tap to rate this tab
# A B C D E F G H I J K L M N O P Q R S T U V W X Y Z