Song name
# A B C D E F G H I J K L M N O P Q R S T U V W X Y Z

Misc Unsigned Bands - Jhake Vargas - Ngiti tab

Title: Ngiti
Artist: Jhake Vargas
Tabbed by: Mark Larry S. Saquing

C	   F	 G
e|-0------0-------3-|
B|-1------1-------3-|
G|-0------2-------0-|
D|-2------3-------0-|
A|-3------x-------2-|
E|-x------x-------3-|


Intro:
Guitar 1: C-F (4x)

Guitar 2:

e|------------------------------------|
B|------------------------------------|
G|-5h7-9-9--5------------7-5--5h7-7/9-|
D|---------------5--5-3-3-------------|
A|------------------------------------|
E|------------------------------------|

e|----------------------7-87------------------|
B|-8-8/10-8--5-------------8h10868------------|
G|----------------5/7-------------------7-7/9-|
D|--------------------------------------------|
A|--------------------------------------------|
E|--------------------------------------------|

e|-----------------------|
B|--------8-8/10--8-6-8--|
G|-7-7/9-----------------|
D|-----------------------|
A|-----------------------|
E|-----------------------|

Verse 1:
C		       F
Simple lang pala kung paano ako
    C                F
Liligaya sa mundong ito
   C       	     F
Ikay patatamanin at papaligayahin
    C	                F
Hanggang maluha ka sa tuwa
C		F
Dahil lahat ng nararamdaman mo
C	       G
Ay nadarama ko rin

Chorus:
        F	    C	
Kaya ngiti ngiti ngiti aking giliw
    F	          	     C
Hanggang ang puso ko ay mabaliw
F		      C
Ngiti ngiti ang pantawag sa akin
     F                         C           F-C
Para puso koy sayo lamang sayo lamang uuwi
  Guitar 2:
    e|------------------------------|
    B|------------------------10-8--|
    G|-5h7-9-99-10-97h9-9-99-------|
    D|------------------------------|
    A|------------------------------|
    E|------------------------------|

         F       C	
Kaya ngiti ngiti ngiti aking giliw
    F          		    C
Hanggang ang puso ko ay mabaliw
   F		      C
Ngiti ngiti ang pantawag sa akin
     F			       C           F-C
Para puso koy sayo lamang sayo lamang uuwi
 Guitar 2:
     e|-----------------------------|
     B|------------------------10-8-|
     G|-5h7-9-99-10-97h9-9-99------|
     D|-----------------------------|
     A|-----------------------------|
     E|-----------------------------|

     e|-----------------------------|
     B|------------------------10-8-|
     G|-5h7-9-99-10-97h9-9-99------|
     D|-----------------------------|
     A|-----------------------------|
     E|-----------------------------|
	     F		C			
                 Ngiti

     e --------------------------------|
     B|--------------------------------|
     G|-5h7-9-5h7-9-77h9-10-1010-1010-|
     D|--------------------------------|
     A|--------------------------------|
     E|--------------------------------|
     F		C			
    Ngiti


    F			      C        F
e|------------------------7-87-------------|
B|-------8-8/10-8--5----------8h10868------|
G|-5-7/9-------------5/7-------------7-7/9-|
D|-----------------------------------------|
A|-----------------------------------------|
E|-----------------------------------------|
     Ngiti
     C                F
e|----------------------|
B|--------8-8/10--8-6-8-|
G|-7-7/9----------------|
D|----------------------|
A|----------------------|
E|----------------------|

Tap to rate this tab
 
# A B C D E F G H I J K L M N O P Q R S T U V W X Y Z