Song name
# A B C D E F G H I J K L M N O P Q R S T U V W X Y Z

Misc Unsigned Bands - Funtwo Carol Rock - Funtwo Is Coming To Town tab

 Christmas Carol - funtwo is coming to town        


                                      credit to funtwo
LEAD



     H.            Q      
E||----------------------|
B||----------------------|
G||----------------------|
D||----------------------|
A||----------------------|
E||----------------x\----|


      PM PM   PM PM      PM    PM         
  S S S  S  S S  S  S S  S  S  S  E   E   
-----------------------------------------|
-----------------------------------------|
-----------------------------------------|
--7-7-5--7--5----------------------------|
--------------7--5--3-Lb----3b--------0--|
-------------------------5-----5--3b-----|


      PM PM   PM PM   PH   PM   PH PM         
  S S S  S  S S  S    S S  S    S  S  E   E   
---------------------------------------------|
---------------------------------------------|
---------------------------------------------|
--7-7-5--7--5--------------------------------|
--------------7--5--<>3-Lb----<>3b--------0--|
---------------------------5-------5--3b-----|


      PM PM   PM PM   PH   PM   PH PM         
  S S S  S  S S  S    S S  S    S  S  E   E   
---------------------------------------------|
---------------------------------------------|
---------------------------------------------|
--7-7-5--7--5--------------------------------|
--------------7--5--<>3-Lb----<>3b--------0--|
---------------------------5-------5--3b-----|


      PM PM   PM PM   PH   PM   PH PM           
                                      |--3--|   
  S S S  S  S S  S    S S  S    S  S  E  E  E   
-----------------------------------------------|
--------------------------------------8--8--8--|
--------------------------------------7--7--7--|
--7-7-5--7--5-------------------------6--6--6--|
--------------7--5--<>3-Lb----<>3b----7--7--7--|
---------------------------5-------5-----------|


   S S S S  S S S S S S  S  S   Q     
-------------------------------------|
--\2-3-5-5~-L-0-5-0-7-9-10-10~--L----|
-------------------------------------|
-------------------------------------|
-------------------------------------|
-------------------------------------|


                  PH           PH       
   S S S S Q      S  T   T S   S  Q     
---------------------------------------|
--\2-3-5-5-L----<>5b-Lbr-3-5-<>3~-L----|
---------------------------------------|
---------------------------------------|
---------------------------------------|
---------------------------------------|


                    PH        
  S S S E.  E  E    Q     E   
-----------------------------|
--2-5-------2-----<>3~-------|
--------2------4----------1--|
-----------------------------|
-----------------------------|
-----------------------------|


         TH                  
                   |--3--|   
  Q      Q    Q    E  E  E   
----------------------------|
-------------------8--8--8--|
--2----<>L---------7--7--7--|
-------------------6--6--6--|
-------------------7--7--7--|
----------------------------|


    S  S  S  S  S S  S S  S  S  S  S   E   E   
-------------------------14-16-17-17b--L--17--|
--/14-15-17-17~-L-0-17-0----------------------|
----------------------------------------------|
----------------------------------------------|
----------------------------------------------|
----------------------------------------------|


    S  S  S  S Q     S  T    T  S  S  Q     
-------------------------------------------|
--\14-15-17-17-L----17b-Lbr-15-17-15~-L----|
-------------------------------------------|
-------------------------------------------|
-------------------------------------------|
-------------------------------------------|


                          PH         
   S  S S  E.   E   E     Q      E   
------------------------------------|
--14-17--------14------<>15~--------|
----------14-------16-----------13--|
------------------------------------|
------------------------------------|
------------------------------------|


               |--6--|  |--6--|  |--6--|  |--6--|  
   Q     Q     S  S  S  S  S  S  S  S  S  S  S  S  
--------------------------------------------------|
--------------------------------------------------|
--14-----L-------------------------------11-13-14-|
--------------------------------11-12-14----------|
-----------------------11-12-14-------------------|
--------------10-12-14----------------------------|


   E    E   E.    S   S  S  S  S  E.     S  
-----------------17b--L-17-14----14~-------|
------------------------------17-----------|
--14b--14--13~-------------------------/16-|
-------------------------------------------|
-------------------------------------------|
-------------------------------------------|


                   |--6--|  |--6--|  |--6--|  |--6--|  
   E   E   E   E   S  S  S  S  S  S  S  S  S  S  S  S  
------------------17-14-------------------------------|
------------------------17-14-------------------------|
---L--14--13--14--------------17-16-14----------------|
---------------------------------------16-14----------|
---------------------------------------------16-15-14-|
------------------------------------------------------|


                                     PH         
   S  S  S  S  S  S  S  S  E   E     E    S  S  
-----------------------------------------------|
--14----12----11----12-------------------------|
--14-14-12-12-12-12-13-13-13--13--<>13--/13-14-|
--------------------------14--14----14---------|
-----------------------------------------------|
-----------------------------------------------|


                        \4        
   S  S  S  S  E   E    H         
---------------------------------|
----------------------<>5--------|
--16-16-14-14-13-----------------|
------------------16-------------|
---------------------------------|
---------------------------------|


   S S S S  S S S S S S  S  S   E   E   
---------------------------------------|
--\2-3-5-5~-L-0-5-0-7-9-10-10b--L--10--|
---------------------------------------|
---------------------------------------|
---------------------------------------|
---------------------------------------|


    S  S  S  S  Q     S  T    T  S  S  Q     
--------------------------------------------|
--\14-15-17-17~-L----17b-Lbr-15-17-15~-L----|
--------------------------------------------|
--------------------------------------------|
--------------------------------------------|
--------------------------------------------|


   S  S S  E.   E   E   E   E   E     
---------------------------17--16br--|
--14-17--------14------15------------|
----------14-------16----------------|
-------------------------------------|
-------------------------------------|
-------------------------------------|


   W                  
--17~----------------|
---------------------|
---------------------|
---------------------|
---------------------|
---------------------|


   S  S   S     S  S  S   S  S  S   S  S  S   S  S  S  S
--17------------------------12--------14--------------15
-----15b--Lpbr-14-15----------------------------14-17---
---------------------14S-12----12S-14----14h-15---------
--------------------------------------------------------
--------------------------------------------------------
--------------------------------------------------------


                       \1/         \1/                 
                   |---3---|   |---3---|   |---3---|   
   S  S   S     S  E   E   E   E   E   E   E   E   E   
--17--------------------------------------------------|
-----15b--Lpbr-14-15---L--14------------------14--17--|
------------------------------15---L--14--15----------|
------------------------------------------------------|
------------------------------------------------------|
------------------------------------------------------|


         T       T               T       T              
         |---12--|   |---12--|   |---12--|   |---12--|  
   Q     T   T   T   T   T   T   T   T   T   T   T   T  
--15----17p-15h-17p-15p-14h-15h-17p-15h-17p-15p-14h-15h-
--------------------------------------------------------
--------------------------------------------------------
--------------------------------------------------------
--------------------------------------------------------
--------------------------------------------------------


   T       T               T       T               T    
   |---12--|   |---12--|   |---12--|   |---12--|   |---1
   T   T   T   T   T   T   T   T   T   T   T   T   T   T
--------------------------------------------------------
--17p-15h-17p-15p-14h-15h-17p-15h-17p-15p-14h-15h-17p-15
--------------------------------------------------------
--------------------------------------------------------
--------------------------------------------------------
--------------------------------------------------------


   S   S  S   S  S   S  S   S  S   S  S   S   S  S  S  S
------17-----17-----17-----17-----17-----17-------------
--20b----20b----20b----20b----20b----20b----------------
------------------------------------------------------17
------------------------------------------------17-19---
--------------------------------------------/19---------
--------------------------------------------------------


   S   S  S  S   S  S  S   S  S  S   S  S  S   S  S  S  
---------21--------19--------17--------19--------21-----
--------------------------------------------------------
--19S-21----21S-19----19S-18----18S-19----19S-21----21S-
--------------------------------------------------------
--------------------------------------------------------
--------------------------------------------------------


   S  S  S   S  S  S   S  S  S   S  S  S   S  S  E   
-----19--------17--------19--------21--------19-----|
----------------------------------------------------|
--19----19S-18----18S-19----19S-21----21S-19----19--|
----------------------------------------------------|
----------------------------------------------------|
----------------------------------------------------|


   Q      Q      Q      S   S  S  S  
--17-----17-----17---------17-------|
--20b----20b----20b----20b----20-17-|
------------------------------------|
------------------------------------|
------------------------------------|
------------------------------------|


   S  S  S  S   S  S  S  S  E   S  S  S  S  E   
-----------------------------------------------|
-----------------------------------------------|
--20-19-17-19b--L-19-17----17------------------|
------------------------19-----19-17--L-18-19--|
-----------------------------------------------|
-----------------------------------------------|


   |--6--|  |--6--|  |--6--|  |--6--|  |--6--|  |--6--| 
   S  S  S  S  S  S  S  S  S  S  S  S  S  S  S  S  S  S 
--------------------------------------------------------
--------------------------------17-20----------17-19-20-
--------------17-19-------17-19-------17-19-20----------
--------17-19-------17-19-------------------------------
--17-19-------------------------------------------------
--------------------------------------------------------


   |--6--|  |--6--|  |--6--|  |--6--|  |--6--|  |--6--| 
   S  S  S  S  S  S  S  S  S  S  S  S  S  S  S  S  S  S 
--21-17-------------------------------------------------
--------20-17-------20-17-------------------------------
--------------19-18-------19-18-------19-18-------------
--------------------------------19-17-------19-17-------
--------------------------------------------------19-17-
--------------------------------------------------------


   W                  
---------------------|
---------------------|
---------------------|
---------------------|
---------------------|
--17~----------------|


      PM PM   PM PM      PM    PM         
  S S S  S  S S  S  S S  S  S  S  E   E   
-----------------------------------------|
-----------------------------------------|
-----------------------------------------|
--7-7-5--7--5----------------------------|
--------------7--5--3-Lb----3b--------0--|
-------------------------5-----5--3b-----|


      PM PM   PM PM   PH   PM   PH PM         
  S S S  S  S S  S    S S  S    S  S  E   E   
---------------------------------------------|
---------------------------------------------|
---------------------------------------------|
--7-7-5--7--5--------------------------------|
--------------7--5--<>3-Lb----<>3b--------0--|
---------------------------5-------5--3b-----|


      PM PM   PM PM   PH   PM   PH PM         
  S S S  S  S S  S    S S  S    S  S  E   E   
---------------------------------------------|
---------------------------------------------|
---------------------------------------------|
--7-7-5--7--5--------------------------------|
--------------7--5--<>3-Lb----<>3b--------0--|
---------------------------5-------5--3b-----|


      PM PM   PM PM   PH   PM           
  S S S  S  S S  S    S S  S  S S Q     
---------------------------------------|
------------------------------9-8-L----|
------------------------------8-7-L----|
--7-7-5--7--5-----------------7-6-L----|
--------------7--5--<>3-Lb----8-7-L----|
---------------------------5-----------|


  W                                     
-------------------|-------------------|
--L----------------|-------------------|
--L----------------|-------------------|
--L----------------|-------------------|
--L----------------|-------------------|
-------------------|-------------------|


-------------------|-------------------||
-------------------|-------------------||
-------------------|-------------------||
-------------------|-------------------||
-------------------|-------------------||
-------------------|-------------------||




Duration Legend
---------------
W - whole
H - half
Q - quarter
E - 8th
S - 16th
T - 32nd
X - 64th
. - note dotted
|-n-|  - n-tuplets


Tablature Legend
----------------
L - tied note
x - dead note
g - grace note
(n) - ghost note
> - accentuded note
NH - natural harmonic
AH - artificial harmonic
TH - tapped harmonic
SH - semi harmonic
PH - pitch harmonic
h - hammer on
p - pull off
b - bend
br - bendRelease
pb - preBend
pbr - preBendRelease
brb - bendReleaseBend
\n/ - tremolo bar dip
\n - tremolo bar dive
-/n - tremolo bar Release up
/n\ - tremolo bar inverted dip
/n - tremolo bar return
-\n - tremolo bar Release down
S - shift slide
s - legato slide
/ -  slide into from below or out of upwards
\ -  slide into from above or out of downwards
~ - vibrato
W - wide vibrato
tr - trill
TP - tremolo picking
T - tapping
S - slap
P - pop
< - fade in
^ - brush up
v - brush down
Tap to rate this tab
# A B C D E F G H I J K L M N O P Q R S T U V W X Y Z