Song name
# A B C D E F G H I J K L M N O P Q R S T U V W X Y Z

Misc Unsigned Bands - Cranius - Big Blue Dress chords

Highlighted       Show chord diagrams
intro:  A B C D E F# G# A  -  Am G F E (E7)
         
E||----------------------|----------------------|----------------------|
B||----------------------|----------------------|----------------------|
G||---------5--4----2----|--0------4--2---------|---------2------------|
D||----------------------|-----------------5----|--3---------5----3----|
A||----------------------|----------------------|----------------------|
E||----------------------|----------------------|----------------------|


   
--------------------|----------------------|----------------------|
--------------------|----------------------|----------------------|
--------------------|----------------------|----------------------|
--2-----------------|----------------------|----------------------|
--------------------|----------------------|----------------------|
--------------------|---------8--7----5----|--3------7--5----3----|


       
----------------------|-------------------------||
----------------------|-------------------------||
----------------------|-------------------------||
----------------------|-------------------------||
----------------------|-------------------------||
--1------5--3----1----|--0----0----3----7------5||



Am                E
I've been kicking ass since the dawn of time
G                             D
I'm just a killing man that's reached my killing prime
  Am                       E
I burn and I plunder as it suits my desire
    G                       D
The weapon of my choice is "great balls of fire"
 


   Am                  G
So why, I ask, it just doesn't make much sense
       F                                E7                
That a man of my stature should have to wear a dress
  Am                                 G
I mean what, may I inquire, were you thinking on that day
         F                               E7
When you conjured up for a man like me a robe that looks so gay

Am    G     F                       E7
Ahhhh Aahhh sit right back and your troubles melt away
Am    G     F                    E7
Ahhhh Aahhh he uses fire but his robe looks so gay
 

I was taught my craft at the dawn of pain
You may not like my methods but you'll surely know my name
I just think incendiary thoughts and my hands burst into flames
A few moments later and you'll never be the same
 
(Chorus)
 
So if you're embarrassed and you hang your head in shame
You'd like an opportunity to redeem your worthy name
Well just remember this: when next you look to kill
That a man who's truly skilled can look quite good in twill
 
(Chorus)
Tap to rate this tab
# A B C D E F G H I J K L M N O P Q R S T U V W X Y Z