Song name
# A B C D E F G H I J K L M N O P Q R S T U V W X Y Z

Misc Unsigned Bands - The Lonely Stoners - Satanic Towel tab

Riff/Intro
e-------------------------------------|
B-------------------------------------|
G-------------------------------------|
D-2-2-4-4-2-2-4-4---------------------|
A-0-0-0-0-0-0-0-0---------------------|
E-------------------------------------|


Chorus
e-------------------------------------|
B-------------------------------------|
G-------------------------------------|
D-5-5-7-7-5-5-7-7-3-3-5-5-3-3-5-5-----|
A-------------------------------------|
E-------------------------------------|


Outro
e-------------------------------------|
B-------------------------------------|
G-------------------------------------|
D-------------------------------------|
A-------------------------------------|
E-0-0-0-0-8-8-0-0-0-0-9-9-------------|
Tap to rate this tab
# A B C D E F G H I J K L M N O P Q R S T U V W X Y Z