Song name
# A B C D E F G H I J K L M N O P Q R S T U V W X Y Z

Misc Unsigned Bands - Jhake Vargas - Ngiti tab

Title: Ngiti
Artist: Jhake Vargas
Tabbed by: Mark Larry S. Saquing

Intro:

Guitar 1: C-F(4x)
   C   F   G
e|-0---0---3-|
B|-1---1---3-|
G|-0---2---0-|
D|-2---3---0-|
A|-3---x---2-|
E|-x---x---3-|
 
Guitar 2:
       C            F          C                 F 
e|-------------------------------------------------|
B|---------------------------------8-8/10-8--5-----|
G|-5h7-9-9-5----------7-5--7-5-7/9-------------5/7-|
D|-----------5--5-3-3------------------------------|
A|-------------------------------------------------|
E|-------------------------------------------------|

     C                  F           C               F
e|-7-87-----------------------------------------------|
B|-----8h10867----------------------------------------|
G|------------7-7/9---------------------8-8/10--8-6-8-|
D|------------------7h9-9/10-9-7--7-7/9---------------|
A|----------------------------------------------------|
E|----------------------------------------------------|
Tap to rate this tab
 
# A B C D E F G H I J K L M N O P Q R S T U V W X Y Z