Song name
# A B C D E F G H I J K L M N O P Q R S T U V W X Y Z

Misc Unsigned Bands - Risk Of Addiction - Not Over Now tab

Risk of Addiction - Not over now

Verse:

1:---------------------------------------------------------------------|
2:---------------------------------------------------------------------|
3:-----7---5-------7---5-------7---5-------7---5-----------------------|
4:-5---7---5---5---7---5---5---7---5---5---7---5-----------------------|
5:-5---5---3---5---5---3---5---5---3---5---5---3-----------------------|
6:-3-----------3-----------3-----------3-------------------------------|

Bridge:

1:---------------------------------------------------------------------|
2:---------------------------------------------------------------------|
3:-9999999999999999-5555555555555555-7777777777777777-7777777777777777-|
4:-9999999999999999-5555555555555555-7777777777777777-7777777777777777-|
5:-7777777777777777-3333333333333333-5555555555555555-5555555555555555-|
6:---------------------------------------------------------------------|

Refrain: (2x)

1:---------------------------------------------------------------------|
2:---------------------------------------------------------------------|
3:----------77777777-99999999-55555555----------77777777-55555555------|
4:-55555555-77777777-99999999-55555555-55555555-77777777-55555555------|
5:-55555555-55555555-77777777-33333333-55555555-55555555-33333333------|
6:-33333333----------------------------33333333------------------------|

Bridge 2:

1:---------------------------------------------------------------------|
2:---------------------------------------------------------------------|
3:-77777777-55555555-77777777-55555555-77777777-55555555----------7-7--|
4:-77777777-55555555-77777777-55555555-77777777-55555555-55555555-7-7--|
5:-55555555-33333333-55555555-33333333-55555555-33333333-55555555-5-5--|
6:-------------------------------------------------------33333333------|

Solo:

1:---------------------------------------------------------------------|
2:---------------------------------------------------------------------|
3:-12--12--12-11-9---------12--12--12-11-9-----------------------------|
4:---12--12--------12-10-9---12--12--------12-10-9-9-10-9-10-9-10-9-10-|
5:---------------------------------------------------------------------|
6:---------------------------------------------------------------------|

1:---------------------------------------------------------------------|
2:---------------------------------------------------------------------|
3:--------------------------------9-11-12-12-12-12---------------------|
4:-12-10-9-10-9-10-9-10-9-10-9-10--------------------------------------|
5:---------------------------------------------------------------------|
6:---------------------------------------------------------------------|

Refrain 2: (4x)

1:---------------------------------------------------------------------|
2:---------------------------------------------------------------------|
3:------------99999999---11-11-11-11-11-11-11-11---77777777------------|
4:-77777777---99999999---11-11-11-11-11-11-11-11---77777777------------|
5:-77777777---77777777---9--9--9--9--9--9--9--9----55555555------------|
6:-55555555------------------------------------------------------------|

Order:

Verse
Bridge
Refrain
Bridge 2
Refrain
Solo
Refrain 2
Tap to rate this tab
# A B C D E F G H I J K L M N O P Q R S T U V W X Y Z