Song name
# A B C D E F G H I J K L M N O P Q R S T U V W X Y Z

Misc Unsigned Bands - Silver Wing - Midnight Ride tab

                         Midnight Ride
                          Silver Wing
                 Music And Lyrics By T Hunt And
                           M Thompson

   Tuning: E Flat 
   Intro X4         
E|----------------------------|
B|----------------------------|
G|--7-9----5-7----0-2-2-2-2-2-|
D|--7-9----5-7----0-2-2-2-2-2-|
A|----------------------------|
E|-----0-0----0-0-------------|


Verse        
E|--------------------------------------------------|
B|--------------------------------------------------|
G|--------------------------------------------------|
D|--------------------------------------------------|
A|-5-4-----0-0-0-0-0-0-0-0--3-2---------------------|
E|-----7-5----------------------2-3-3-3-3-3-3-3-3-3-|
           PM.............          PM.............

Pre-Chorus
E|--------------------------------------------------------------|
B|--------------------------------------------------------------|
G|--------------------------------------------------------------|
D|-4-5-7-7-7-9-7-7-9-7-7-5-5-5-5-7-5-5-5-7-7-9-7-8-108-10101012-|
A|-2-3-5-5-5-5-5-5-5-5-5-3-3-3-3-3-3-3-3-3-5-5-5-6-6-6-8-8-8-10-|
E|--------------------------------------------------------------|

Chorus                           {    X2                }
E|-------------------------------------------------------|
B|-------------------------------------------------------|
G|--5----------------------------7-9-9-5-7-7-0-2-2-0-2-2-|
D|---5-----8-7-7---------7-7-7-7-7-9-9-5-7-7-0-2-2-0-2-2-|
A|----3p0--6-5-5-5-5-5-5-5-5-5-5-------------------------|
E|---------------3-3-3-3---------------------------------|
                 PM.............
Pre Verse
E|-------|
B|-------|
G|-------|
D|-----7-|
A|-5p4-5-|
E|-------|

-Verse
-Chorus
-Solo

End Chorus
E|-------------------------|
B|-------------------------|
G|-7-9-9-5-7-7-0-2-2-0-2-2-|
D|-7-9-9-5-7-7-0-2-2-0-2-2-|
A|-------------------------|
E|-------------------------|
Tap to rate this tab
# A B C D E F G H I J K L M N O P Q R S T U V W X Y Z