Song name
# A B C D E F G H I J K L M N O P Q R S T U V W X Y Z

Misc Unsigned Bands - Risk Of Addiction - Party Till You Puke tab

Risk of Addiction - Party till you puke

Intro:
1:-----------------------------------------------------------------------|
2:-----------------------------------------------------------------------|
3:-4-4-4-4-4-4-4-4---------------------4-4-4-4-4-4-4-4-------------------|
4:-4-4-4-4-4-4-4-4---5-5-5-5-5-5-5-5---4-4-4-4-4-4-4-4---5-5-5-5-5-5-5-5-|
5:-2-2-2-2-2-2-2-2---5-5-5-5-5-5-5-5---2-2-2-2-2-2-2-2---5-5-5-5-5-5-5-5-|
6:-------------------3-3-3-3-3-3-3-3---------------------3-3-3-3-3-3-3-3-|

1:-----------------------------------------------------------------------|
2:-----------------------------------------------------------------------|
3:-6-7-6-7---------------------6-7-6-7-----------------------------------|
4:-4-5-4-5---5-5-5-5-5-5-5-5---4-5-4-5---5-5-5-5-5-5-5-7-----------------|
5:-----------5-5-5-5-5-5-5-5-------------5-5-5-5-5-5-5-7-----------------|
6:-----------3-3-3-3-3-3-3-3-------------3-3-3-3-3-3-3-5-----------------|

Verse:
1:-----------------------------------------------------------------------|
2:-----------------------------------------------------------------------|
3:-4-4-4-4-4-4-4-4---------------------4-4-4-4-4-4-4-4-------------------|
4:-4-4-4-4-4-4-4-4---5-5-5-5-5-5-5-5---4-4-4-4-4-4-4-4---5-5-5-5-5-5-5-5-|
5:-2-2-2-2-2-2-2-2---5-5-5-5-5-5-5-5---2-2-2-2-2-2-2-2---5-5-5-5-5-5-5-5-|
6:-------------------3-3-3-3-3-3-3-3---------------------3-3-3-3-3-3-3-3-|

1:-----------------------------------------------------------------------|
2:-----------------------------------------------------------------------|
3:-4-4-4-4-4-4-4-4---------------------4-4-4-4-4-4-4-4-------------------|
4:-4-4-4-4-4-4-4-4---5-5-5-5-5-5-5-5---4-4-4-4-4-4-4-4---5-5-5-5-5-5-5-7-|
5:-2-2-2-2-2-2-2-2---5-5-5-5-5-5-5-5---2-2-2-2-2-2-2-2---5-5-5-5-5-5-5-7-|
6:-------------------3-3-3-3-3-3-3-3---------------------3-3-3-3-3-3-3-5-|

Intro: 1x
Verse: 2x
Tap to rate this tab
 
# A B C D E F G H I J K L M N O P Q R S T U V W X Y Z