Song name
# A B C D E F G H I J K L M N O P Q R S T U V W X Y Z

Misc Unsigned Bands - The Shrooms - Man In The Moon tab

e|--------------------------------------------------------------------------|
B|--------------------------------------------------------------------------|
G|-----10------10-----10-----10-----11-----10------10-----10-----10----11---|
D|--9-------9------9------9------9------9------9-------9------9------9------|
A|--------------------------------------------------------------------------|
E|--------------------------------------------------------------------------|

e|-----------------------------------------------------13-------------------|
B|-10--10-13--13--15--15--17--17--18--18--17--17--13---9--------------------|
G|-9---9--12--12--13--13--15--15--17--17--16--16--14---10-------------------|
D|-----------------------------------------------------11-------------------|
A|--------------------------------------------------------------------------|
E|--------------------------------------------------------------------------|

Tap to rate this tab
# A B C D E F G H I J K L M N O P Q R S T U V W X Y Z