Song name
# A B C D E F G H I J K L M N O P Q R S T U V W X Y Z

Misc Unsigned Bands - Cragmatic Pope - Aftershock The Cats Ass tab

Song:Aftershock (The Cat's Ass)
Band:Cragmatic Pope
Album:กก Get Away From That Fish !!
Tabbed By:Bill Brassfort

You can all figure out the timing and how everything fits together yourselves. Sorry I'm 
too lazy to do it. Besided I don't see anyone else tabbing this stuff. :P


  Intro
e|-----------|---------|-------|
B|-----------|---------|-------|
G|-----------|-7-6-----|-------|
D|-4---4-4-4-|-7-6-7-6-|-4-/16-|
A|-4---4-4-4-|-5-4-7-6-|-4-/16-|
E|-2---2-0-2-|-----5-4-|-2-/14-|

  Verse           Chorus
e|---------------|---------------------|
B|---------------|---------------------|
G|-------------7-|-4-6---------------7-|
D|-4-4-4-4-4-4-7-|-4-6---4-4-4-4-4-4-7-|
A|-4-4-4-4-4-4-5-|-2-4---4-4-4-4-4-4-5-|
E|-2-0-2-0-2-0---|-------2-0-2-0-2-0---|

  End
e|-----------|
B|-----------|
G|-----------|
D|-4-4-4-4-4-|
A|-4-4-4-4-4-|
E|-2-0-2-0-2-|


Lyrics:
You think you know what's going on
You trample me when I'm not strong
There's just one thing I've got to say
I never liked you anyway
I know that you'll bring me down
Whenever you are around.
Tap to rate this tab
# A B C D E F G H I J K L M N O P Q R S T U V W X Y Z