Song name
# A B C D E F G H I J K L M N O P Q R S T U V W X Y Z

Misc Unsigned Bands - Michael Mceachern - Whats Inside tab

What's Inside - Michael McEachern
Tabbed by: Kristen Hulse
Email: kristenh@gmail.com
Tuning: Standard

Verse:

e|-----------------------|
B|-----------------------|
G|--9999-9666-6666-4444--|
D|--7777-6666-6666-4444--|
A|-------7777-4444-2222--|
E|-----------------------|

Pre-Chorus:

e|--0000-0000------------|
B|--0000-0000------------|
G|--4444-4444------------|
D|--4444-4444------------|
A|--3333-3333------------|
E|--2222-2222------------|

Chorus:

e|--0000-0000-0000-00-00-|
B|--0000-0000-0000-00-00-|
G|--2222-1111-2222-44-22-|
D|--2222-2222-2222-44-22-|
A|--0000-2222-0000-33-00-|
E|--0000-0000-0000-22-00-|

Bridge:

e|--00-00-00-00----------|
B|--00-00-00-00----------|
G|--99-99-99-66----------|
D|--99-99-99-66----------|
A|--00-77-66-44----------|
E|--00-00-77-00----------|
Tap to rate this tab
# A B C D E F G H I J K L M N O P Q R S T U V W X Y Z