Song name
# A B C D E F G H I J K L M N O P Q R S T U V W X Y Z

Misc Unsigned Bands - Powerage - Better Of Dead tab

Powerage
Better off Dead
Composer:Matt Garaghty
Tuning:Standard
Key:
*=divebomb
\=slide down
/=slide up
h=hamer-on
p=pull-off
^=bend
~=tremolo



              Intro
        gtr 1&2  ~~~~~~~ ~~~~~~~ |  gtr 1       |  
e|----------------------------------------------|
b|----------------------------------------------|
g|-------------------------------9-8-7-6--------|
d|--------------3-------3-----------------------|
a|--------------3-------3----------------7-6-5-4|
e|--------------1-------1-----------------------|
  (creepy laugh)
e|--------------------------------------------------------------------------------------|
b|-----------------------3---------------3-----------------3---------------3------------|
g|-----------------------2---------------2-2---------------2---------------2-2----------|
d|---------------5-------0-------5-------0-2-------5-------0-------5-------0-2----------|
a|2--------2---2-3-2---2---2---2-3-2-------0-2---2-3-2---2---2---2-3-2---2---0-3-5-4-3-2|
e|0--------0h3-0---0h3-0---0h3-0---0h3-0-----0h3-0---0h3-0---0h3-0---0h3-0-------3-2-1-0|

           Verse 1   gtr 1&2
e|-----------------------------------------------------------------------------|
b|-----------------------------------------------------------------------------|
g|-----------------------------------------------------------------------------|
d|---------------------------------------------------5-------------------------|
a|---------------------------------------------------5--------------------3----|
e|00000000000000000000000000000000000000000000000000-3--------------------1----|
  So lost and dedicated, short life and frusterated, but whose the one to blame
e|----------------------------------------------------------------|
b|----------------------------------------------------------------|
g|----------------------------------------------------------------|
d|-------------------------------------------5--------------------|
a|-------------------------------------------5---------------3----|
e|000000000000000000000000000000000000000000-3---------------1----|
  Busted investigated, melted disintegrated, your the one to blame

          Chorus                                    ~~~
e|--------------------------------------------------------|
b|--------------------------------------------------------|
g|9------------------------------6-5-4-3------------------|
d|9----------------------2--------------------------------|
a|7-----9-7----8---5-----2---------------4-3-2-1-2/17^^2--|
e|------7-5----6---3-----0-----------------------0-----0--|
  Your, better off dead! 

          Verse 2  gtr 1&2
e|------------------------------------------------------------------------------|
b|------------------------------------------------------------------------------|
g|------------------------------------------------------------------------------|
d|----------------------------------------------------5-------------------------|
a|----------------------------------------------------5--------------------3--2-|
e|000000000000000000000000000000000000000000000000000-3--------------------1--0-|
  I'll find a way to get there, by peace or war-fare, but whose the one to blame
e|----------------------------------------------------------------------|
b|----------------------------------------------------------------------|
g|----------------------------------------------------------------------|
d|-------------------------------------------------5--------------------|
a|-------------------------------------------------5---------------3--2-|
e|000000000000000000000000000000000000000000000000-3---------------1--0-|
  Your a brutal disas-ter, take me on if you dare, your the one to blame

               Solo
e|------13-14-12---------------------------------------------------------------------|
b|----12--------13-----------------12-13-14-13-12-13-14-13-12-13-14-13-12-14-15-14-12|
g|--13------------12-----------------------------------------------------------------|
d|12----------------13---------------------------------------------------------------|
a|--------------------11-------------------------------------------------------------|
e|----------------------13-12^^^\1---------------------------------------------------|

e|---------------------------------------------------------------------------------|
b|-14-15-14-12-14-15-14-12-13-14-13-12-13-14-13-12-13-----12-13-----12-13-----12-13|
g|---------------------------------------------------------------------------------|
d|---------------------------------------------------------------------------------|
a|---------------------------------------------------------------------------------|
e|---------------------------------------------------------------------------------|
                                                                         ~~~~
e|------------------------------------------------------------------------------|
b|14-13-15-14-16-15-17-16-17-18---17-18---19^19^19^191919-19^19^19^191919-------|
g|------------------------------------------------------------------------------|
d|------------------------------------------------------------------------------|
a|------------------------------------------------------------------------------|
e|------------------------------------------------------------------------------|
                             (with whammy)
e|------------------------------8-7-6-7-6-5----------------------------------------|
b|-----------------10-9-8-9-8-7-------------6-5-4-5-4-3-----------------2^p0-------|
g|12-11-10-11-10-9--------------------------------------4-3-2-3-2-1-2-1-2^p0-------|
d|---------------------------------------------------------------------------2-0-2-|
a|-------------------------------------------------------------------------------2-|
e|---------------------------------------------------------------------------------|

  Ending
e|-----------------------------------------------------------|
b|-----------------------------------------------------------|
g|-----------------------------------------------------------|
d|-----------------------------------------------------------|
a|-----------------------------------------------------------|
e|7-6-5-0-7-6-5-0-7-6-5-0-7-6-5-0*---------------------------|
                                 (slow divebomb)   Fade Out


ORDER:
INTRO
VERSE 1
CHORUS
VERSE 2
CHORUS
SOLO
INTRO
chorus x2 
ENDING
Tap to rate this tab
# A B C D E F G H I J K L M N O P Q R S T U V W X Y Z