Song name
# A B C D E F G H I J K L M N O P Q R S T U V W X Y Z

Misc Unsigned Bands - Prisoner Of Sorrow - You Are The Reason tab

              
                                  Intro

|1|-----------------------------------------------------------------------||
|2|-----------------------------------------------------------------------||
|3|-----------------------------------------------------------------------||
|4|-----------------------------------------------------------------------||
|5|-10----x9--x7--9--2-----8---x7--x5--5--2-------------------------------||
|6|-8-----x7--x5--7--0-----6---x5--x3--7--0-------------------------------||


                            Chorus

|1|-----------------------------------------------------------------------||
|2|-----------------------------------------------------------------------||
|3|-----------------------------------------------------------------------||
|4|-------2---------2---------2---------2-5-4-----------------------------||
|5|-------2---------2---------2----235------------------------------------||
|6|--0-0-----000-0-----000-0----------------------------------------------||


                        Solo
    T(16 times)   T(16times)     T(8times)   T(8times)  T(1time)  T(16times)
|1|-----------------------------------------------------------------------||
|2|-12p8p5--------10p7p5---------12p8p5------13p8p5----12p8p5-----10p7p5--||
|3|-----------------------------------------------------------------------||
|4|-----------------------------------------------------------------------||
|5|-----------------------------------------------------------------------||
|6|-----------------------------------------------------------------------||

                         Chorus during solo

|1|-----------------------------------------------------------------------||
|2|-----------------------------------------------------------------------||
|3|-----------------------------------------------------------------------||
|4|--------2----------2---------2-----------------------------------------||
|5|-------2-----------2---------2--------5--4--5--------------------------||
|6|---0-0------000-0------000-0-----000--3--2--3--------------------------||


Tap to rate this tab
# A B C D E F G H I J K L M N O P Q R S T U V W X Y Z