Song name
# A B C D E F G H I J K L M N O P Q R S T U V W X Y Z

Misc Unsigned Bands - Primary Songbook - I Hope They Call Me On A Mission tab

Tabbed by:Rachel
Email:

Sorry about the spacing - I wanted to fit the words so they correspond with the notes. 
majority of the song follows the pattern as shown in the first six notes.
Tuning:
                                       I   hope     they call me on a
e|--------------------------------------------------------------------|
B|--------------------------------------------------------------------|
G|--------1---------2\1-------1--------2\1--------1---------------2\1-|
D|--------------------------------------------------------------------|
A|-----2-----2--4----------2-----2--4----------2-----2-----4----------|
E|--0-------------------0--------------------0------------------------|

 mission          when  I       have grown a foot or two         I
e|--------------------------------------------------------------------|
B|--------------------------------------------------------------------|
G|---------1-------2\1---------1--------------2\1----------1-----2\1--|
D|--------------------------------------------------------------------|
A|-----2-----2--4----------2------2----4----------------2---2-4-------|
E|--0-------------------0-----------------------------0---------------|

  hope      by then I will be ready          to    teach and   preach
e|--------------------------------------------------------------------|
B|--------------------------------------------------------------------|
G|--------1------------2\1-----------1-------2\1-----------1----------|
D|--------------------------------------------------------------------|
A|-----2-----2--4-----------------2-----2--4------------2-----2-----6-|
E|--0---------------------------0-------------------0------------4----|

  and    work  as     missionaries do
e|-------------------------------------------------------|
B|-------------------------------------------------------|
G|--------------2-----------2-----------1-------2\1---1--|
D|-6---------2-----2----------------------------------2--|
A|----6---0-----------2---------------2---2--4--------2--|
E|---------------------------------0------------------0--|

2nd verse:

I hope that I can share the gospel
With those who want to know the truth
I want to be a missionary
And serve and help the Lord while I am in my youth


************************************

| /   slide up
| \   slide down
| h   hammer-on
| p   pull-off
| ~   vibrato
| +   harmonic
| x   Mute note
| b   Bend
| pb  Pre-bend
| br  Bend release
| pbr Pre-bend release
| brb Bend release bend

************************************
Tap to rate this tab
# A B C D E F G H I J K L M N O P Q R S T U V W X Y Z