Song name
# A B C D E F G H I J K L M N O P Q R S T U V W X Y Z

Misc Unsigned Bands - Billete De 1000 Pesos - Carcachita Linda Carcachita Azul tab

carcachita linda carcachita azul


billete de 1000 pesos


TRANSCRIBED BY RUDY GUZMAN


guzman_84@hotmail.com


   carcachita linda carcachita  azul      ando enamorado voy por mi querer
e:---2----2-----2----2----2---2----3---3------------------------------------2---|
B:---3----3-----3----3----3---3----3---3----2---2---2---2---2---2----2---2----3-|
G:---2----2-----2----2----2---2----0---0----2---2---2---2---2---2----2---2------|
D:-0---------0---------0--------------------2-2-2---2-2-2---2-2-2----2-2-2-0----|
A:------0---------0---------0--------2----0-------0-------0--------0------------|
E:-------------------------------3----------------------------------------------|

   carcachita linda pronto       llegare  quiero estar contigo pronto te vere
e:---2----2-----2----2----2---2----3---3-------------------------------------2---|
B:---3----3-----3----3----3---3----3---3----2---2---2---2---2---2----2---2---3---|
G:---2----2-----2----2----2---2----0---0----2---2---2---2---2---2----2---2---2---|
D:-0---------0---------0--------------------2-2-2---2-2-2---2-2-2----2-2-2-0-----|
A:------0---------0---------0--------2----0-------0-------0--------0-----------0-|
E:-------------------------------3-----------------------------------------------|

e:------------------------|
B:------------------------|
G:---2-4-5--2-------------|
D:-5-----------4--0-2-4-5-|
A:------------------------|
E:------------------------|

hillo son mex

23/05/10
Tap to rate this tab
# A B C D E F G H I J K L M N O P Q R S T U V W X Y Z