Song name
# A B C D E F G H I J K L M N O P Q R S T U V W X Y Z

Misc Unsigned Bands - Denis Salgado - Kiss From A Rose tab

Kiss from a rose by Denis salgado composed by Seal
Standard tuning


-----------------------------------------------------------------------------|
-------12--13-15-13-12-10-8s10-10s8s10---------12-13-15-13-12-8-8-10s12-10---|
--12s14----------------------------------12s14-------------------------------|
-----------------------------------------------------------------------------|
-----------------------------------------------------------------------------|
-----------------------------------------------------------------------------|

-----------------------------------------------------------------------------|
--------------------------------------9b10r9---------------------------------|
-6b7-6b7r6b7r6-7-9-7-9-7s9-7-6-7s9~----------9-6-7-7s9-6-9-7s9-6-9-4s6-------|
-----------------------------------------------------------------------------|
-----------------------------------------------------------------------------|
-----------------------------------------------------------------------------|

--9b10r9---------------------------------------------------------------------|
---------10---7-7b87-5-5b7-5-------9b10----9b10------------------------------|
------------9----------------7s9--------6~--------5~-------------------------|
-----------------------------------------------------------------------------|
-----------------------------------------------------------------------------|
-----------------------------------------------------------------------------|

------------------------------------------------------------------------------|
---------------------------------------21b22-21-17-20p17-20p17-20-20b22-20-17-|
-2-2s5-7-5-2s4-2-0-4s5-7-5-2s4-2-0-s6~~---------------------------------------|
------------------------------------------------------------------------------|
------------------------------------------------------------------------------|
------------------------------------------------------------------------------|

-----------------------------------------------------------------------------|
-------------------20b22-20p17-20p17-20b22-20-17-----------------------------|
17s19-17-16-14~~----------------------------------17s19-17-19-18~~-----------|
-----------------------------------------------------------------------------|
-----------------------------------------------------------------------------|
-----------------------------------------------------------------------------|

-----------------------------------------------------------------------------|
--20b22-20-17-20b22-20-17----------20b22-20-17-------------------------------|
--------------------------17s19-17-------------19-17-16-14~~-----------------|
-----------------------------------------------------------------------------|
-----------------------------------------------------------------------------|
-----------------------------------------------------------------------------|

-----------------------------------------------------------------------------|
------12-13-15-13-12-10-8-10-10s8-10~------12-13-15-13-12-8-10s12-10~--------|
-12s14-------------------------------12s14-----------------------------------|
-----------------------------------------------------------------------------|
-----------------------------------------------------------------------------|
-----------------------------------------------------------------------------|

---------------------------------------------------------16b17r16------------|
-14b15r14-14b15r14b15r14-15-15s17---17-15s17-15-14-15s17---------17----------|
----------------------------------14-------------------------------18--------|
-----------------------------------------------------------------------------|
-----------------------------------------------------------------------------|
-----------------------------------------------------------------------------|


-----------------------------------------------------------------------------|
-15-17-15-17s20-17-20-22~---s10s8--------------------------------------------|
----------------------------------s9-5-5h7--5-7-5-7-5-7-8-9-5----------------|
--------------------------------------------------------------7---5-6-7------|
----------------------------------------------------------------7------------|
-----------------------------------------------------------------------------|
                                                               |-|
                                                               PM
-----------------------------------------------------------------------------|
-----------------------------------------------------------------------------|
---4---4-h5p4-2h4----13b14----13b14-----2-4s5-7-5-2s4-2-0-4s5-7-5-4-2-0-4s6--|
-7---7----------------------11-----10----------------------------------------|
-----------------------------------------------------------------------------|
-----------------------------------------------------------------------------|

-----------------------------------------------------------------------------|
-21b22-21-20p17-20p17-20p17-20p17-20b22-17-----------------------------------|
-------------------------------------------19-17-16-14~----------------------|
-----------------------------------------------------------------------------|
-----------------------------------------------------------------------------|
-----------------------------------------------------------------------------|

-----------------------------------------------------------------------------|
-20b22-20p17-20p17-20p17-20b22-17-------------20b22-20-17-20b22-20-17--------|
----------------------------------19-17-19-18-------------------------19-17--|
-----------------------------------------------------------------------------|
-----------------------------------------------------------------------------|
-----------------------------------------------------------------------------|

-----------------------------------------------------------------------------|
-20b-20-17------------------------12-13-15-13-12-10-8-10-10s8s10-------------|
----------19b-17-16-14~------12s14-------------------------------------------|
-----------------------------------------------------------------------------|
-----------------------------------------------------------------------------|
-----------------------------------------------------------------------------|

-----------------------------------------------------------------------------|
------12-13-15-13-12-8-10s12-10-------12-13-15-13-12-s8--12-13-15-13-12-s8---|
-12s14---------------------------12s14---------------------------------------|
-----------------------------------------------------------------------------|
-----------------------------------------------------------------------------|
-----------------------------------------------------------------------------|

-----------------------------------------------------------------------------|
-------s15-13b-13-12-10----------s15-13b-13-12-10-----12-12-12s15-17s19------|
---s12------------------12-11-12------------------12-------------------------|
-----------------------------------------------------------------------------|
-----------------------------------------------------------------------------|
-----------------------------------------------------------------------------|

-----------------------------------------------------------------------------|
-17-15-13-12-12s15-15-17b19-17-15-13-12---12s14-14b15r14b15r14-15-15s17-14---|
-----------------------------------------------------------------------------|
-----------------------------------------------------------------------------|
-----------------------------------------------------------------------------|
-----------------------------------------------------------------------------|

-----------------------16b18-------------------------------------------------|
-17-15s17-15-14-15s17--------17----15-17-14-17s20-20-17-20-21b22-------------|
--------------------------------18-------------------------------------------|
-----------------------------------------------------------------------------|
-----------------------------------------------------------------------------|
-----------------------------------------------------------------------------|

-----------------------------------------------------------------------------|
-13-15-13-15-16-17-13------------------12s10s12-10-12-13-12-10h12------------|
----------------------14----12-13-14-----------------------------------------|
-------------------------14--------------------------------------------------|
-----------------------------------------------------------------------------|
-----------------------------------------------------------------------------|

-16b17---16b17---------------------------------------------------------------|
------14-------13-----13-15-13-------------s13-15-13--------------s14--------|
-------------------14----------14s16-14-16-----------14s16-14-s12------------|
-----------------------------------------------------------------------------|
-----------------------------------------------------------------------------|
-----------------------------------------------------------------------------|

-----------------------------------------------------------------------------|
-22b-22p20-22-17s20-17-20-17-20b22-20-17-------------20b22-17-20p17-20p17----|
-----------------------------------------19-17-16-14-------------------------|
-----------------------------------------------------------------------------|
-----------------------------------------------------------------------------|
-----------------------------------------------------------------------------|

-----------------------------------------------------------------------------|
-20b22-17------------20b22-20-17-20b22-20-17-------20b22-20-17---------------|
---------19-17-19-18~------------------------19-17-------------19-17-16-s14--|
-----------------------------------------------------------------------------|
-----------------------------------------------------------------------------|
-----------------------------------------------------------------------------|

------------------------------------------------------------------------------|
-20----17-20-17s20-17-20-17-20b22-17------------20b22-20-17-20b22-20-17-------|
-19b21------------------------------19-17-19-18-------------------------19-17-|
------------------------------------------------------------------------------|
------------------------------------------------------------------------------|
------------------------------------------------------------------------------|

-----------------------------------------------------------------------------|
--20b22-20-17----------------------------------------------------------------|
--------------19b21-17-16-14-------------------------------------------------|
-----------------------------------------------------------------------------|
-----------------------------------------------------------------------------|
-----------------------------------------------------------------------------|

-----------------------------------------------------------------------------|
-------12-13-15-13-12-10-8h10-10-10-8s10------12-13-15-13-12-8-10s12-10------|
-12s14-----------------------------------12s14-------------------------------|
-----------------------------------------------------------------------------|
-----------------------------------------------------------------------------|
-----------------------------------------------------------------------------|

----------------------------15-----------------------------------------------|
-15b17-15-13-15b17-15-13-12----15b17-15p13-15b17-13-12b13p10-8-8b10----------|
-----------------------------------------------------------------------------|
-----------------------------------------------------------------------------|
-----------------------------------------------------------------------------|
-----------------------------------------------------------------------------|

-5---------------------------------------------------------------------------|
---8p5-----------------------------------------------------------------------|
-------7b9-7--5-----7b9-5----------------------------------------------------|
----------------7-5---------7---5h7p5----------------------------------------|
------------------------------7-------7s5b7r5--------------------------------|
-----------------------------------------------7-5--3-3b5--------------------|
Tap to rate this tab
 
# A B C D E F G H I J K L M N O P Q R S T U V W X Y Z